Search tabs:
Browse artists: 0-9 | A | B | C | D | E | F | G | H | I | J | K | L | M | N | O | P | Q | R | S | T | U | V | W | X | Y | Z
/ As I Lay Dying / Beneath the Encasing of Ashes (2001) / Behind Me Lies Another Fallen Soldier bass tab

Behind Me Lies Another Fallen Soldier

If there is nothing in a bar, that is a rest, do not play anything.
TheAlcoholic@gmail.com

Bass

F||-------------------|
C||-------------------|
G||-------------------| Rest for Approx. 30 bars
C||--0----------------|



|-------------------------|-------------------------|
|-------------------------|-------------------------|
|-------------------------|-------------------------|
|--0--0--0--0--0----0--0--|--0--7--7--7--7----7--7--|



-------------------------|-------------------------|-------------------------|
-------------------------|-------------------------|-------------------------|
-------------------------|-------------------------|-------------------------|
--7--8--8--8--8----8--8--|--8--3--3--3--3----3--3--|--0--0--0--0--0----0--0--|



-------------------------|-------------------------|-------------------------|
-------------------------|-------------------------|-------------------------|
-------------------------|-------------------------|-------------------------|
--0--7--7--7--7----7--7--|--7--8--8--8--8----8--8--|--8--3--3--3--3----3--3--|



-------------------------|-------------------------|-------------------------|
-------------------------|-------------------------|-------------------------|
-------------------------|-------------------------|-------------------------|
--0--0--0--0--0----0--0--|--0--7--7--7--7----7--7--|--7--8--8--8--8----8--8--|



-------------------------|-------------------------|-------------------------|
-------------------------|-------------------------|-------------------------|
-------------------------|-------------------------|-------------------------|
--8--3--3--3--3----3--3--|--0--0--0--0--0----0--0--|--0--7--7--7--7----7--7--|



-------------------------|-------------------------|-------------------|
-------------------------|-------------------------|-------------------|
-------------------------|-------------------------|-------------------|
--7--8--8--8--8----8--8--|--8--8--8--8--8----8--8--|--8----------------|



------------------|-------------------|------------------|
------------------|-------------------|------------------|
------------------|-------------------|------------------|
------------------|--7----------------|------------------|



--------------------------|--------------------------|
--------------------------|--------------------------|
--------------------------|--------------------------|
--0--0--0--0--0--0--0--0--|--0--0--0--0--0--0--0--0--|



--------------------------|--------------------------|-------------------|
--------------------------|--------------------------|-------------------|
--------------------------|--------------------------|-------------------|
--0--0--0--0--0--0--0--0--|--0--0--0--0--0--0--0--0--|--8----------------|



------------------|-------------------|------------------|
------------------|-------------------|------------------|
------------------|-------------------|------------------|
------------------|--8----------------|------------------|



--------------------------|--------------------------|
--------------------------|--------------------------|
--------------------------|--------------------------|
--0--0--0--0--0--0--0--0--|--0--0--0--0--0--0--0--0--|



--------------------------|--------------------------|
--------------------------|--------------------------|
--------------------------|--------------------------|
--0--0--0--0--0--0--0--0--|--0--0--0--0--0--0--0--0--|



--------------------------------|--------------------------------|
--------------------------------|--------------------------------|
--------------------------------|--------------------------------|
--12--12--12--12--12----12--12--|--12--12--12--12--12----12--12--|



--------------------------------|--------------------------------|
--------------------------------|--------------------------------|
--------------------------------|--------------------------------|
--10--10--10--10--10----10--10--|--10--10--10--10--10----10--10--|



-------------------------|-------------------------|-------------------------|
-------------------------|-------------------------|-------------------------|
-------------------------|-------------------------|-------------------------|
--8--8--8--8--8----8--8--|--8--8--8--8--8----8--8--|--7--7--7--7--7----7--7--|



-------------------------|--------------------------------|
-------------------------|--------------------------------|
-------------------------|--------------------------------|
--8--8--8--8--8----8--8--|--12--12--12--12--12----12--12--|



--------------------------------|--------------------------------|
--------------------------------|--------------------------------|
--------------------------------|--------------------------------|
--12--12--12--12--12----12--12--|--10--10--10--10--10----10--10--|



--------------------------------|-------------------------|
--------------------------------|-------------------------|
--------------------------------|-------------------------|
--10--10--10--10--10----10--10--|--8--8--8--8--8----8--8--|



-------------------------|-------------------------|-------------------------|
-------------------------|-------------------------|-------------------------|
-------------------------|-------------------------|-------------------------|
--8--8--8--8--8----8--8--|--7--7--7--7--7----7--7--|--8--8--8--8--8----8--8--|



-------------------------|-------------------------|-------------------------|
-------------------------|-------------------------|-------------------------|
-------------------------|-------------------------|-------------------------|
--0--0--0--0--0----0--0--|--0--7--7--7--7----7--7--|--7--8--8--8--8----8--8--|



-------------------------|-------------------------|-------------------------|
-------------------------|-------------------------|-------------------------|
-------------------------|-------------------------|-------------------------|
--8--3--3--3--3----3--3--|--0--0--0--0--0----0--0--|--0--7--7--7--7----7--7--|



-------------------------|-------------------------|-------------------------|
-------------------------|-------------------------|-------------------------|
-------------------------|-------------------------|-------------------------|
--7--8--8--8--8----8--8--|--8--3--3--3--3----3--3--|--0--0--0--0--0----0--0--|



-------------------------|-------------------------|-------------------------|
-------------------------|-------------------------|-------------------------|
-------------------------|-------------------------|-------------------------|
--0--7--7--7--7----7--7--|--7--8--8--8--8----8--8--|--8--3--3--3--3----3--3--|



-------------------------|-------------------------|-------------------------|
-------------------------|-------------------------|-------------------------|
-------------------------|-------------------------|-------------------------|
--0--0--0--0--0----0--0--|--0--7--7--7--7----7--7--|--7--8--8--8--8----8--8--|



-------------------------|-------------------|------------------|
-------------------------|-------------------|------------------|
-------------------------|-------------------|------------------|
--8--3--3--3--3----3--3--|--8----------------|------------------|



-------------------|------------------|-------------------|------------------|
-------------------|------------------|-------------------|------------------|
-------------------|------------------|-------------------|------------------|
--7----------------|------------------|--0----------------|------------------|



------------------|------------------||
------------------|------------------||
------------------|------------------||
------------------|------------------||


As I Lay Dying albums
2005 Shadows Are Security
2003 Frail Words Collapse
2001 Beneath the Encasing of Ashes
Beneath the Encasing of Ashes tabs
03Forced to Die tabbass tab
06The Voices That Betray Me tabbass tab
12Behind Me Lies Another Fallen Soldier tabbass tab

 

1