Search tabs:
Browse artists: 0-9 | A | B | C | D | E | F | G | H | I | J | K | L | M | N | O | P | Q | R | S | T | U | V | W | X | Y | Z
/ Barenaked Ladies / Gordon (1992) / Brian Wilson bass tab

Bryan Wilson - Barenaked ladies
Tabbed by Dan Massicotte

Standard tunning E,A,D,G

(Upright Bass)

Guitar Intro, then:

Part 1

|--------7-|-5--5---7-|-3--3---5-|-2--2--x--|--------5/7-|-5--5---7-|
|-5--5-----|----------|----------|--------3-|-5----------|----------|
|----------|----------|----------|----------|---3--------|----------|
|----------|----------|----------|----------|-----3------|----------|

|-3--3---5-|-2--2--x--|
|----------|--------3-|
|----------|----------|
|----------|----------|

Part 2

so im lyin' here....

|----------|----------|----------|---------|
|--------1-|-3--x-----|----------|---------|
|-1--1-1---|-----3--x-|-3--x-----|-3--x--3-|
|----------|----------|-----3--3-|------3--|

|----------|----------|----------|------------|
|--------1-|-3--x-----|----------|--------3h5-|
|-1--1-1---|-----3--x-|-5---5--x-|-3---3x-----|
|----------|----------|----------|------------|

Part 3

And when you wanna find me....

|--------|---------|--------|--------|
|--------|-3-x-----|--------|--------|
|-3--3-x-|----3--x-|--------|--------|
|--------|---------|-6--6-x-|-4--4-x-|

|--------|---------|--------|--------|
|--------|-3-x-----|--------|--------|
|-3--3-x-|----3--x-|--------|--------|
|--------|---------|-4--4-x-|-3--3-x-|

Part 4

I had a dream....
               (x2)                                  (x2)
|----|---|---|----|---------|---------|--------|---------|
|*---|---|---|---*|*--------|-5---5-x-|--------|--------*|
|*-3-|---|-3-|---*|*-3--3-x-|---------|-3--3-x-|--------*|
|----|-3-|---|-3--|---------|---------|--------|-3--3-x--|

|--------|--------|--------|--------|
|--------|-5--5-x-|-5--5-x-|-5--5-x-|
|-3--3-x-|--------|--------|--------|
|--------|--------|--------|--------|

Part 5

Bass Solo
                                                                (x2)
|----------------|--------------|---------------|----------------------|
|*------8--10/12-|-10--10h12----|------8--10/12-|-10---13-12-10-------*|
|*-8/10----------|-----------13-|-8/10----------|---------------13-12-*|
|----------------|--------------|---------------|----------------------|

                         (x3)
|--10h12-12-12-10h12-12-12--|-12-10----10-------------|
|*-------------------------*|-------12----12-10-------|
|*-------------------------*|-------------------12-10-|
|---------------------------|-------------------------|

                     (x4)
|------------------------|----|
|*----8-10/12-10-8------*|----|
|*-10--------------10-8-*|-10-|
|------------------------|----|

Have Fun!


Barenaked Ladies albums
2003 Everything to Everyone
2000 Maroon
1998 Stunt
1996 Born on a Pirate Ship
1994 Maybe You Should Drive
1992 Gordon
Gordon tabs
01Hello City tabbass tab
02Enid tabbass tab
04Brian Wilson tabbass tab
05Be My Yoko Ono tabbass tab
07What a Good Boy tabbass tab
12Blame It on Me tabbass tab
13The Flag tabbass tab
14If I Had $1000000 tabbass tab

 

1