Search tabs:
Browse artists: 0-9 | A | B | C | D | E | F | G | H | I | J | K | L | M | N | O | P | Q | R | S | T | U | V | W | X | Y | Z
/ Ben Kweller / Sha Sha (2002) / Harriet's Got a Song bass tab

Artist: Ben Kweller
Song: Harriet’s Got A Song	
Tabbed By: Mikejangles
Standard Tuning (E,A,D,G)


Verse Riff 1 (I don’t stand a chance…/Scare myself sometimes…)
G|-----------------------------------
D|-----------------------------------
A|-11111111----------11111111--------
E|----------11111111----------111----

Verse Riff 2 (But your…/Watch me…/Join our…)
G|--------------------------------------------
D|--------------------------------------------
A|-11111111/55555555------1111----------------
E|-------------------1111------1-3-1-1-3-1----

Bit On The End Of Chorus 1
G|-------------
D|--------3~---
A|-111111------
E|-------------

Bridge
G|--------------------------------------------------------------------------
D|--------------------------------------------------------------------------
A|-55555555-33333333-66666666-11111111-55555555-33333333-666666\11111111----
E|--------------------------------------------------------------------------

G|--------------------------------------------------------
D|--------------------------------------------------------
A|-55555555-33333333-666666-1---1-3-5-666666-1---1-3-5----
E|----------------------------3----------------3----------

Guitar Solo (Let’s go!)
G|---------------------------------------------------------------------------
D|---------------------------------------------------------------------------
A|-55555555-33333333-6666666\11111111-55555555-33333333-6666666-1---1-3-5----
E|----------------------------------------------------------------3----------

G|-----------------------------------------------------------------------------
D|-----------------------------------------------------------------------------
A|-55555555-33333333-6666666\11111111-55555555-33333333-6--6-5-3-1--1-0--------
E|----------------------------------------------------------------------3-1----

Verse Riff 3 (Going off on me…)
G|-------------------------------------
D|-------------------------------------
A|-11111111----------11111111----------
E|----------11111111----------11-11----

Bit On The End Of Chorus 2
G|-------------------------------
D|--------3----------------3~----
A|-111111-----------111111-------
E|----------3-5-3-1--------------

Outro
G|--------------------------------
D|--------------------------3~----
A|-11111111/55555555-111111-------
E|--------------------------------

A cool song by a great guy. It’s pretty easy really, take note of the variations of the number
of times the Eb (6th fret) on the A string is played during the bridge and I’m sure you’ll be
fine. Please feel free to rate it. Cheers!

Song Order:
Intro (No bass)
Verse Riff 1
(Pause)
Verse Riff 2
Chorus (No Bass)
Bit On The End Of Chorus 1
Verse Riff 1
(Pause)
Verse Riff 2
Chorus (No Bass)
Bit On The End Of Chorus 1
Bridge
Guitar Solo
(Pause)
Verse Riff 3
(Pause)
Verse Riff 2
Chorus (No Bass)
Bit On The End Of Chorus 2
Outro


Ben Kweller albums
2004 On My Way
2002 Sha Sha
Sha Sha tabs
02Wasted and Ready tabbass tab
03Family Tree tabbass tab
04Commerce, TX tabbass tab
05In Other Words tabbass tab
06Walk on Me tabbass tab
07Make It Up tabbass tab
08No Reason tabbass tab
09Lizzy tabbass tab
10Harriet's Got a Song tabbass tab
11Falling tabbass tab

 

1