Search tabs:
Browse artists: 0-9 | A | B | C | D | E | F | G | H | I | J | K | L | M | N | O | P | Q | R | S | T | U | V | W | X | Y | Z
/ CKY / An Answer Can Be Found (2005) / Don't Hold Your Breath bass tab

DON'T HOLD YOUR BREATH (Bassline)
                               As recorded by CKY
                  (From the 2005 Album AN ANSWER CAN BE FOUND)

Words by Deron Miller

Music by CKY
Transcribed by Tom Wall

Gtr I (D G C F) - 'Bass'

   Intro
    Q=140
   3/4
    Gtr I
    H.        +Q   Q  Q    H.        +Q   Q  Q    H.
||----------|------------|---------|------------|-------|
||o---------|------------|---------|------------|-------|
||o---------|------2--3--|---------|------3-----|-------|
||--5-------|-(5)--------|-1-------|-(1)-----1--|-3-----|


  1.                                        2.
  H    Q    Q  E  Q  E   E  E E  E  +Q       H.        H.        +H.
|---------|------------|------------------||---------|---------|--------|
|---------|------------|-----------------o||---------|---------|--------|
|---------|------------|-7---------------o||---------|---------|--------|
|-3----3s=|=8--8-10--8-|---10-8-10-(10)---||-3-------|-1-------|-(1)----|


   Verse
    $
    H.        +Q   Q  Q    H.        +Q   Q  Q    H.
||----------|------------|---------|------------|-------|
||o---------|------------|---------|------------|-------|
||o---------|------2--3--|---------|------3-----|-------|
||--5-------|-(5)--------|-1-------|-(1)-----1--|-3-----|


  1.                                     2.
                                                              D.S.
  H    Q    Q.    Q.     E  E E  Q.       H.        H.        +H.
|---------|------------|---------------||---------|---------|---------|
|---------|------------|--------------o||---------|---------|---------|
|---------|------------|-7------------o||---------|---------|---------|
|-3----3s=|=8----10----|---10-8-10-----||-3-------|-1-------|-(1)-----|


 Chorus
  Q  E Q  E   Q  Q  Q    Q  E Q  E   Q  Q  Q
|-----------|----------|-----------|-----------|
|-----------|----------|-----------|-----------|
|-3--3-3--3-|-3--5--7--|-----------|----3------|
|-----------|----------|-5--5-5--5-|-5-----5---|


  Q  E Q  E   Q  Q  Q    Q  E Q  E   Q  Q  Q
|-----------|----------|-----------|-----------|
|-----------|----------|-----------|-----------|
|-3--3-3--3-|-3--5--3--|-----------|----3------|
|-----------|----------|-5--5-5--5-|-5-----5---|


  Q  E Q  E   Q  Q  Q    E Q  Q.     E Q  Q.
|-----------|----------|-----------|------------|
|-----------|----------|-----------|------------|
|-----------|----------|-----------|------------|
|-1--1-1--1-|-1--1--1--|---3--3----|---4--4-----|


   Interlude
    H.        +Q   Q  Q    H.        +Q   Q  Q    H.
||----------|------------|---------|------------|-------|
||o---------|------------|---------|------------|-------|
||o---------|------2--3--|---------|------3-----|-------|
||--5-------|-(5)--------|-1-------|-(1)-----1--|-3-----|


            1.                     2.
  +H.        H.        +H.          H.        +H.
|----------|---------|-----------||---------|--------|
|----------|---------|----------o||---------|--------|
|----------|---------|----------o||-3-------|-(3)----|
|-(3)------|-1-------|-(1)-------||---------|--------|


   Verse
    H.        +Q   Q  Q    H.        +Q   Q  Q    H.
||----------|------------|---------|------------|-------|
||o---------|------------|---------|------------|-------|
||o---------|------2--3--|---------|------3-----|-------|
||--5-------|-(5)--------|-1-------|-(1)-----1--|-3-----|


  1.                                     2.
  H    +E  E   Q.   Q.     E E E Q.       H.        H.        H.
|------------|-----------|-------------||---------|---------|-------|
|------------|-----------|-2----------o||---------|---------|-------|
|------------|-3----5----|---5-3-5----o||---------|---------|-3-----|
|-3----(3)-3-|-----------|-------------||-3-------|-1-------|-------|


  H.        +Q   Q  Q    H.        +Q   Q  Q    H.
|---------|------------|---------|------------|-------|
|---------|------------|---------|------------|-------|
|---------|------2--3--|---------|------3-----|-------|
|-5-------|-(5)--------|-1-------|-(1)-----1--|-3-----|


  H    +E  E   Q.   Q.     H.
|------------|-----------|-------|
|------------|-----------|-------|
|------------|-3----5----|-3-----|
|-3----(3)-3-|-----------|-------|


  H.        +Q   Q  Q    H.        +H     Q
|---------|------------|---------|------------|
|---------|------------|---------|------------|
|---------|------2--3--|---------|------------|
|-5-------|-(5)--------|-1-------|-(1)----1---|


  H.        +H.        H.        +H.
|---------|----------|---------|--------|
|---------|----------|---------|--------|
|---------|----------|---------|--------|
|-3-------|-(3)------|-1-------|-(1)----|


 Chorus
  Q  E Q  E   Q   Q  Q    Q  E Q  E   Q  Q  Q
|-----------|-----------|-----------|-----------|
|-----------|-----------|-----------|-----------|
|-3--3-3--3-|-3--/5--3--|-----------|----3------|
|-----------|-----------|-5--5-5--5-|-5-----5---|


  Q  E Q  E   Q   Q  Q    Q  E Q  E    E E E E +Q
|-----------|-----------|-----------|----------------|
|-----------|-----------|-----------|----------------|
|-3--3-3--3-|-3--/5--3--|-----------|-/7-5-3h5-(5)---|
|-----------|-----------|-5--5-5--5-|----------------|


  Q  E Q  E   Q  Q  Q    E Q  Q.     E Q  Q.
|-----------|----------|-----------|------------|
|-----------|----------|-----------|------------|
|-----------|----------|-----------|------------|
|-1--1-1--1-|-1--1--1--|---3--3----|---4--4-----|


 Interlude
  Q  E Q  E   Q  Q  Q    Q  E Q  E   Q  Q  Q
|-----------|----------|-----------|-----------|
|-----------|----------|-----------|-----------|
|-----------|----2--3--|-----------|----3------|
|-5--5-5--5-|-5--------|-1--1-1--1-|-1-----1---|


  Q  E Q  E   +H.        H.        E E E Q.
|-----------|----------|---------|-------------|
|-----------|----------|---------|-2-----------|
|-----------|----------|---------|---5-3-5-----|
|-3--3-3--3-|-(3)------|-1-------|-------------|


  Q  E Q  E   Q  Q  Q    Q  E Q  E   +H     Q
|-----------|----------|-----------|------------|
|-----------|----------|-----------|------------|
|-----------|----2--3--|-----------|------------|
|-5--5-5--5-|-5--------|-1--1-1--1-|-(1)----1---|


  Q  E Q  E   +H.        H.        +Q   Q  Q
|-----------|----------|---------|-------------|
|-----------|----------|---------|-------------|
|-----------|----------|-3-------|-(3)--5--3---|
|-3--3-3--3-|-(3)------|---------|-------------|


 Guitar Solo
  Q  E Q  E   Q  Q  Q    Q  E Q  E   Q  Q  Q
|-----------|----------|-----------|-----------|
|-----------|----------|-----------|-----------|
|-----------|----2--3--|-----------|----3------|
|-5--5-5--5-|-5--------|-1--1-1--1-|-1-----1---|


  Q  E Q  E   +H     Q    H    +Q     Q   Q  Q
|-----------|-----------|-----------|------------|
|-----------|-----------|-----------|------------|
|-----------|-----------|-----------|------------|
|-3--3-3--3-|-(3)----3--|-1----(1)s=|=8--10--8---|


  Q  E Q  E   Q  Q  Q    H.        Q  Q  Q
|-----------|----------|---------|-----------|
|-----------|----------|---------|-----------|
|-----------|----2--3--|---------|----3------|
|-5--5-5--5-|-5--------|-1-------|-1-----1---|


  H.        H.        H.        +H.
|---------|---------|---------|--------|
|---------|---------|---------|--------|
|---------|---------|---------|--------|
|-3-------|-3-------|-1-------|-(1)----|


   Chorus
    Q  E Q  E   Q   Q  Q    Q  E Q  E   +H     Q
||------------|-----------|-----------|-----------|
||o-----------|-----------|-----------|-----------|
||o-3--3-3--3-|-3--/5--3--|-----------|-----------|
||------------|-----------|-5--5-5--5-|-(5)----5--|


  Q  E Q  E   Q   Q  Q    Q  E Q  E    E E E E +Q
|-----------|-----------|-----------|----------------|
|-----------|-----------|-----------|----------------|
|-3--3-3--3-|-3--/5--3--|-----------|-/7-5-3h5-(5)---|
|-----------|-----------|-5--5-5--5-|----------------|


  Q  E Q  E   Q  Q  Q    E Q  Q.     E Q  Q.
|-----------|----------|-----------|-------------||
|-----------|----------|-----------|------------o||
|-----------|----------|-----------|------------o||
|-1--1-1--1-|-1--1--1--|---3--3----|---4--4------||


    Q  E Q  E   Q  Q  Q    E Q  Q.     E Q  Q.
||------------|----------|-----------|------------||
||o-----------|----------|-----------|-----------o||
||o-----------|----------|-----------|-----------o||
||--1--1-1--1-|-1--1--1--|---3--3----|---4--4-----||


  H.        +H.        +H.        +H.
|---------|----------|----------|--------*|
|---------|----------|----------|--------*|
|---------|----------|----------|--------*|
|-1-------|-(1)------|-(1)------|-(1)----*|


CKY albums
2005 An Answer Can Be Found
2002 Infiltrate Destroy Rebuild
2001 CKY, Vol. 2
2001 CKY, Vol. 1
An Answer Can Be Found tabs
01Suddenly Tragic tabbass tab
02The Way You Lived tabbass tab
03Dressed in Decay tabbass tab
04Familiar Realm tabbass tab
05All Power to Slaves tabbass tab
07Behind the Screams tabbass tab
08Deceit Is Striking Gold tabbass tab
09As the Tables Turn tabbass tab
10Sniped tabbass tab
11Don't Hold Your Breath tabbass tab

 

1