Search tabs:
Browse artists: 0-9 | A | B | C | D | E | F | G | H | I | J | K | L | M | N | O | P | Q | R | S | T | U | V | W | X | Y | Z
/ CKY / An Answer Can Be Found (2005) / Dressed in Decay bass tab

DRESSED IN DECAY (Bassline)
                               As recorded by CKY
                  (From the 2005 Album AN ANSWER CAN BE FOUND)

Words and Music by Deron Miller

Gtr I (D G C F) - 'Untitled'

   Verse
    Q=118
   4/4
    Gtr I
    S S S S S S S S S S S S S S S S   S S S S S S S S S S S S S S S S
||----------------------------------|---------------------------------|
||o---------------------------------|---------------------------------|
||o---------------------------------|---------------------------------|
||--3-3-3-3-3-3-3-3-3-3-3-3-3-3-3-3-|-0-0-0-0-0-0-0-0-0-0-0-0-0-0-0-0-|


  S S S S S S S S S S S S S S S S   S S S S S S S S S S S S S S S S
|---------------------------------|----------------------------------||
|---------------------------------|---------------------------------o||
|-3-3-3-3-3-3-3-3-3-3-3-3-3-3-3-3-|---------------------------------o||
|---------------------------------|-0-0-0-0-0-0-0-0-0-0-0-0-0-0-0-0--||


   Breakdown
    E E E E E E E E   E E E E E E Q     E E E E E E E E   E E E E E E Q
||------------------|-----------------|-----------------|-------------------||
||o-----------------|-----------------|-----------------|------------------o||
||o-2-2-2-2-2-2-2-2-|-4-4-4-4-4-4-7\--|-2-2-2-2-2-2-2-2-|-4-4-4-4-4-4-7\---o||
||------------------|-----------------|-----------------|-------------------||


   Chorus
    E E Q  E E E E   E E E E E E E E   E E Q  E E E E   E E H    Q
||-----------------|-----------------|----------------|---------------||
||o----------------|-----------------|----------------|--------------o||
||o----------------|-2---2---2---2---|----------------|--------------o||
||--4-4----4---4---|-----------------|-0-0----0---0---|-0-0------2----||


                                                                    D.C.
    E E E E E E E E   E E E E E E E E   E E E E E E E E   E E E E E E E E
||------------------|-----------------|-----------------|-------------------||
||o-----------------|-----------------|-2-2-2-2-2-2-2-2-|-2-2-2-2-2-2-4-4--o||
||o-----------------|-2-2-2-2-2-2-2-2-|-----------------|------------------o||
||--4-4-4-4-4-4-4-4-|-----------------|-----------------|-------------------||


   Interlude
    H.       Q    H.      Q    H.      Q    H.      Q    4x
||--------------|------------|------------|--------------||
||o-------------|------------|------------|-------------o||
||o-------------|------------|-3-------3--|-------------o||
||--3-------/5--|-0-------0--|------------|-0-------0----||


   Chorus
    E E Q  E E E E   E E E E E E E E   E E Q  E E E E   E E H    Q
||-----------------|-----------------|----------------|---------------||
||o----------------|-----------------|----------------|--------------o||
||o----------------|-2---2---2---2---|----------------|--------------o||
||--4-4----4---4---|-----------------|-0-0----0---0---|-0-0------2----||


    E E E E E E E E   E E E E E E E E   E E E E E E E E   E E E E E E E E
||------------------|-----------------|-----------------|-------------------||
||o-----------------|-----------------|-2-2-2-2-2-2-2-2-|-2-2-2-2-2-2-4-4--o||
||o-----------------|-2-2-2-2-2-2-2-2-|-----------------|------------------o||
||--4-4-4-4-4-4-4-4-|-----------------|-----------------|-------------------||


CKY albums
2005 An Answer Can Be Found
2002 Infiltrate Destroy Rebuild
2001 CKY, Vol. 2
2001 CKY, Vol. 1
An Answer Can Be Found tabs
01Suddenly Tragic tabbass tab
02The Way You Lived tabbass tab
03Dressed in Decay tabbass tab
04Familiar Realm tabbass tab
05All Power to Slaves tabbass tab
07Behind the Screams tabbass tab
08Deceit Is Striking Gold tabbass tab
09As the Tables Turn tabbass tab
10Sniped tabbass tab
11Don't Hold Your Breath tabbass tab

 

1