Search tabs:
Browse artists: 0-9 | A | B | C | D | E | F | G | H | I | J | K | L | M | N | O | P | Q | R | S | T | U | V | W | X | Y | Z
/ CKY / An Answer Can Be Found (2005) / Familiar Realm bass tab

This is a great song, really fun to play also.
Cky never fails to impress me with their songs, the new cd is gonna be awesome.


Intro

G-----7------9-7---7-------2
D-7-9---9-7------9---9-7---0
A---------------------------
E---------------------------

G--------------------------7------9-7---7------2
D-0-0-0-0-0-0-0-0-0-0--7-9---9-7------9---9-7--0
A-----------------------------------------------
E-----------------------------------------------

G-------7---5-----5---5/9---------9---7-----9----7/11---2
D-5-5-5---5---5-7---7-------7-7-7---7---7-9---7---------0
A--------------------------------------------------------
E--------------------------------------------------------

G-------/11-9~~7-9--7-----7-----------9-11-7
D-0-0-0---------------9-9---9-9--7-9--------
A-------------------------------------------
E------------------------------------------

G--------------------------7------9-7---7------2
D-0-0-0-0-0-0-0-0-0-0--7-9---9-7------9---9-7--0
A-----------------------------------------------
E-----------------------------------------------

G------------------------------------------------------------------------------2
D-0-0-0-0-0-0-0-0-0-0-2-2-2-2-2-2-2-2-4-4-4-5-5-5-5-5-5-5-5-7-7-7-7-7-7-7-7-7--0
A-------------------------------------------------------------------------------
E-------------------------------------------------------------------------------
rhythm under solo:

G---------/11-9-------7-9---------9--7--9-----9---11---9-
D-0-0-0---------0-0-0------0-0-0------------0---0----0---
A--------------------------------------------------------
E--------------------------------------------------------

G---------/11-9-------7-9---------9--7--9-----9----14----11-
D-0-0-0---------0-0-0------0-0-0------------0---0----0-----
A-----------------------------------------------------------
E-----------------------------------------------------------

Enjoy.


CKY albums
2005 An Answer Can Be Found
2002 Infiltrate Destroy Rebuild
2001 CKY, Vol. 2
2001 CKY, Vol. 1
An Answer Can Be Found tabs
01Suddenly Tragic tabbass tab
02The Way You Lived tabbass tab
03Dressed in Decay tabbass tab
04Familiar Realm tabbass tab
05All Power to Slaves tabbass tab
07Behind the Screams tabbass tab
08Deceit Is Striking Gold tabbass tab
09As the Tables Turn tabbass tab
10Sniped tabbass tab
11Don't Hold Your Breath tabbass tab

 

1