Search tabs:
Browse artists: 0-9 | A | B | C | D | E | F | G | H | I | J | K | L | M | N | O | P | Q | R | S | T | U | V | W | X | Y | Z
/ CKY / An Answer Can Be Found (2005) / Sniped bass tab

CKY - Sniped
Tabbed by: Dudelyness
Tuning: Drop D (DADG)

Intro
G|---------------------------------|
D|--3-----3------------------------|
A|35--5-35--5----------------------|
D|---------------------------------|

Verse A
G|-------------------------------------|
D|-------------------------------------|
A|-----------------------------5-3-0-3-|
D|0-0-0-0-0-0-01-0-0-0-0-0-0-01--------|

Verse B
G|------------------------------------|
D|------------------------------------|
A|------------------------------------|
D|4-4-4-4-4-4-42-4-4-4-4-4-42-5-7-8-7-|

Verse C
G|-------------------------------------|
D|-------------------------------------|
A|-2-2-2-2-2-2-20-2-2-2-2-2-20-1-------|
D|-------------------------------4-3-0-|

Chorus
G|---------------------------------|
D|---------------------------------|
A|---------------------------------|
D|-0000000-3322-3322-5533----------|

Bridge
G|---------------------------------|
D|---------------------------------|
A|---------------------------------|
D|-3~------7-5-----9-7-5-7---------|

End On
A|------|
D|-0~---|


Intro   x1
Verse A x1
Verse B x1
Rest
Verse A x1
Verse B x1
Verse C x1
Rest
Verse A x1
Verse B x1
Verse C x1
Rest
Chorus  x4
Verse A x1
Verse B x1
Verse C x1
Rest
Chorus  x4
Bridge  x4
Intro   x1
Verse A x1
End on


CKY albums
2005 An Answer Can Be Found
2002 Infiltrate Destroy Rebuild
2001 CKY, Vol. 2
2001 CKY, Vol. 1
An Answer Can Be Found tabs
01Suddenly Tragic tabbass tab
02The Way You Lived tabbass tab
03Dressed in Decay tabbass tab
04Familiar Realm tabbass tab
05All Power to Slaves tabbass tab
07Behind the Screams tabbass tab
08Deceit Is Striking Gold tabbass tab
09As the Tables Turn tabbass tab
10Sniped tabbass tab
11Don't Hold Your Breath tabbass tab

 

1