Search tabs:
Browse artists: 0-9 | A | B | C | D | E | F | G | H | I | J | K | L | M | N | O | P | Q | R | S | T | U | V | W | X | Y | Z
/ CKY / An Answer Can Be Found (2005) / Suddenly Tragic bass tab

SUDDENLY TRAGIC (Bassline)
                               As recorded by CKY
                  (From the 2005 Album AN ANSWER CAN BE FOUND)

Words and Music by CKY
Arranged by CKY
Transcribed by Gabriel Ortiz

Gtr I (D G C F) - 'Untitled'

 Intro
  Moderate Rock Q=125
 4/4
  Gtr I
  W          H.      Q
|----------|-------------|
|----------|-------------|
|----------|-------------|
|----------|---------2/--|


  E E E E E E E E   E E E E E E E E
|-----------------|---9-------------|
|-----9-----6-----|-------9---------|
|-7-----------7-9-|-7---7-----6---9-|
|---9---9-9-------|---------7---7---|


  E E E E E E E E   E E E E  E  E  E  +E
|-----------------|---9---------------------|
|-----9-----6-----|-------------------------|
|-7-----------7-9-|-7---7-9-11-11-11-(11)\--|
|---9---9-9-------|-------------------------|


  E E E E E E E E   E E E E E E E E   E E E E E E E E   E E E E  E  E E +E
|-----------------|---9-------------|-----------------|---9-------------------||
|-----9-----6-----|-------9---------|-----9-----6-----|-----------------------||
|-7-----------7-9-|-7---7-----6---9-|-7-----------7-9-|-7---7-9-11-11-9-(9)\--||
|---9---9-9-------|---------7---7---|---9---9-9-------|-----------------------||


   Verse
    $
    E E E E E E E E   E E E E E E E E
||------------------|---9-------------|
||o-----9-----6-----|-------9---------|
||o-7-----------7-9-|-7---7-----6---9-|
||----9---9-9-------|---------7---7---|


  E E E E E E E E   E E E E  E  E  E  +E
|-----------------|---9--------------------|
|-----9-----6-----|------------------------|
|-7-----------7-9-|-7---7-9-11-11-11-(11)\-|
|---9---9-9-------|------------------------|


  E E E E E E E E   E E E E E E E E   E E E E E E E E   E E E E E E E +E
|-----------------|---9-------------|-----------------|---9-----------------||
|-----9-----6-----|-------9---------|-----9-----6-----|---------------------||
|-7-----------7-9-|-7---7-----6---9-|-7-----------7-9-|-7---7---------------||
|---9---9-9-------|---------7---7---|---9---9-9-------|-------2-4-4-2-(2)\--||


  E E E E E E E E   E E E E +E  E E E   E E E E  E E E E   E E E E  E E E E
|-----------------|-------------------|------------------|-------------------|
|-----------------|-------------------|-----9---11-------|-----9---11--------|
|-6-------------6-|-----------------6-|-7--------------9-|-7-----------------|
|---7-9-7-7-9-7---|-7-9-7-4-(4)-7-9---|---9---9----9-9---|---9---9----9-9-7--|


                                       1.
  E E E E E E E E   E E E E +E  E E E   E E E E  E E E E   E E E E H
|-----------------|-------------------|------------------|----------------||
|-----------------|-------------------|-----9---11-------|---------------o||
|-6-------------6-|-----------------6-|-7----------------|---------------o||
|---7-9-7-7-9-7---|-7-9-7-4-(4)-7-9---|---9---9----9-9-9-|-9-9-9-9-2/-----||


  2.,D.S.
  E E E E  E E E E   E E E E E E Q
|------------------|-----------------||
|-----9---11-------|-----------------||
|-7----------------|-----------------||
|---9---9----9-9-9-|-9-9-9-9-9-9-2/--||


 Pre-Chorus
  $$
  E E E E E E E E   E E E E E E E E   E S S E S S E E S S E
|-----------------|-----------------|-----------------------|
|-----------------|-----------------|-----------------------|
|-----------------|-----------------|-----------------------|
|-0-0-0-0-0-0-0-0-|-0-0-0-0-0-0-0-0-|-2-2-2-2-2-2-2-2-2-2-2-|


  q  q  q  q    q  q  q  q    E S S E S S E E S S E
|-------------|-------------|-6-6-6-6-6-6-6-6-6-6-6-|
|-------------|-------------|-----------------------|
|-------------|-------------|-----------------------|
|-0--0--0--0--|-0--0--0--0--|-----------------------|


  q  q  q  q    E S S E S S E E S S E
|-------------|-6-6-6-6-6-6-6-6-6-6-6-|
|-------------|-----------------------|
|-------------|-----------------------|
|-0--0--0--0--|-----------------------|


  E E E E E E E E   E E E E Q  +Q
|-----------------|------------------||
|-----------------|------------------||
|-----------------|------------------||
|-7-7-7-7-7-7-7-7-|-5-5-5-5-5--(5)\--||


   Chorus
                                           To Coda
                                           To Coda
    Q  E E E E Q    Q  E E E E Q    E E E E E E E E  4x
||----------------|---------------|------------------||
||o---------------|----------4----|-----------------o||
||o-4--4----------|-4--4----------|-----------------o||
||-------4-5-4-5--|------4-5---5--|-4-2-2-2-0-0-2-0--||


 Pre-Verse
  E E E E E E E E   E E E E E E E E
|-----------------|---9-------------|
|-----9-----6-----|-------9---------|
|-7-----------7-9-|-7---7-----6---9-|
|---9---9-9-------|---------7---7---|


  E E E E E E E E   E E E E  E  E  E  +E
|-----------------|---9---------------------|
|-----9-----6-----|-------------------------|
|-7-----------7-9-|-7---7-9-11-11-11-(11)\--|
|---9---9-9-------|-------------------------|


                                                          D.S. al Coda
  E E E E E E E E   E E E E E E E E   E E E E E E E E   E E E E E E E +E
|-----------------|---9-------------|-----------------|---9-----------------||
|-----9-----6-----|-------9---------|-----9-----6-----|---------------------||
|-7-----------7-9-|-7---7-----6---9-|-7-----------7-9-|-7---7---------------||
|---9---9-9-------|---------7---7---|---9---9-9-------|-------2-4-4-2-(2)\--||


   Guitar Solo
    &
    E E E E E E E E   E E E E +E  E E E   E E Q  E E E E   E E E E E E E E  3x
||------------------|-------------------|----------------|------------------||
||o-----------------|-------------------|----------------|-----------------o||
||o-6-------------6-|-----------------6-|-7-7------------|-----------------o||
||----7-9-7-7-9-7---|-7-9-7-4-(4)-7-9---|-----7--9-9-9-9-|-9-9-9-9-9-9-9-7--||


                                                    D.S.S. al Dbl. Coda
  E E E E E E E E   E E E E +E  E E E   E E Q  E E E E   E E E E E E E +E
|-----------------|-------------------|----------------|---------------------||
|-----------------|-------------------|----------------|---------------------||
|-6-------------6-|-----------------6-|-7-7------------|---------------------||
|---7-9-7-7-9-7---|-7-9-7-4-(4)-7-9---|-----7--9-9-9-9-|-9-9-9-9-9-9-2-(2)/--||


 Outro
  &&
  E E E E E E E E   E E E E E E E E
|-----------------|---9-------------|
|-----9-----6-----|-------9---------|
|-7-----------7-9-|-7---7-----6---9-|
|---9---9-9-------|---------7---7---|


  E E E E E E E E   E E E E  E  E  E  +E
|-----------------|---9---------------------|
|-----9-----6-----|-------------------------|
|-7-----------7-9-|-7---7-9-11-11-11-(11)\--|
|---9---9-9-------|-------------------------|


  E E E E E E E E   E E E E E E E E   E E E E E E E E   E E E E E E E +E
|-----------------|---9-------------|-----------------|---9-----------------*|
|-----9-----6-----|-------9---------|-----9-----6-----|---------------------*|
|-7-----------7-9-|-7---7-----6---9-|-7-----------7-9-|-7---7---------------*|
|---9---9-9-------|---------7---7---|---9---9-9-------|-------2-4-4-2-(2)\--*|


CKY albums
2005 An Answer Can Be Found
2002 Infiltrate Destroy Rebuild
2001 CKY, Vol. 2
2001 CKY, Vol. 1
An Answer Can Be Found tabs
01Suddenly Tragic tabbass tab
02The Way You Lived tabbass tab
03Dressed in Decay tabbass tab
04Familiar Realm tabbass tab
05All Power to Slaves tabbass tab
07Behind the Screams tabbass tab
08Deceit Is Striking Gold tabbass tab
09As the Tables Turn tabbass tab
10Sniped tabbass tab
11Don't Hold Your Breath tabbass tab

 

1