Search tabs:
Browse artists: 0-9 | A | B | C | D | E | F | G | H | I | J | K | L | M | N | O | P | Q | R | S | T | U | V | W | X | Y | Z
/ CKY / CKY, Vol. 1 (2001) / Disengage the Simulator bass tab

Intro / Main Riff
|-----------------------
|-----------------------
|-----------------------
|---3--3-3-3------3--3--

|---------------------------------------------------
|---------------------------------------------------
|--7--7-7-7-7---5--5-5-5-5---3--3-3-3-3---5--5-5-5--
|---------------------------------------------------

Verse - Riff thing!
|----------------------------------------
|----------------------------------------
|----------0-3--5---5--3-0-3--7-6-5--3---
|--3-3-3-3-------------------------------
"Indifference begins to take sides ..."

if you have and questions comments or wanna talk CKY *** im or email me at IPnPoolz@aol.com

                         *~*DERON MILLER IS GOD!!!*~*


CKY albums
2005 An Answer Can Be Found
2002 Infiltrate Destroy Rebuild
2001 CKY, Vol. 2
2001 CKY, Vol. 1
CKY, Vol. 1 tabs
0196 Quite Bitter Beings tabbass tab
02Rio Bravo tabbass tab
03Disengage the Simulator tabbass tab
04The Human Drive in Hi-Fi tabbass tab
05Lost in a Contraption tabbass tab
06Knee Deep tabbass tab
07My Promiscuous Daughter tabbass tab
08Sara's Mask tabbass tab
09To All of You tabbass tab

 

1