Search tabs:
Browse artists: 0-9 | A | B | C | D | E | F | G | H | I | J | K | L | M | N | O | P | Q | R | S | T | U | V | W | X | Y | Z
/ CKY / CKY, Vol. 1 (2001) / Knee Deep bass tab

Intro
|----------------------------
|----------------------------
|----------------------------
|--9-9-9-9--11--7-7-7-7--9---

Verse
|-----------------------------------
|-----------------------------------
|-----------------------------------
|--0---------5--------3-------0-----

Bridge
|-------------------------------------------------------
|-------------------------------------------------------
|----6-8---4-6-8-6--10-8-6---------------6-8-6--10-8-6--
|--2-----2-----------------5-4-2-4-2---0----------------


PLEASE TAKE TIME TO VISIT MY WEBSITE:

Free Backstage Passes To Concerts
http://concerts.ticketguide.org


CKY albums
2005 An Answer Can Be Found
2002 Infiltrate Destroy Rebuild
2001 CKY, Vol. 2
2001 CKY, Vol. 1
CKY, Vol. 1 tabs
0196 Quite Bitter Beings tabbass tab
02Rio Bravo tabbass tab
03Disengage the Simulator tabbass tab
04The Human Drive in Hi-Fi tabbass tab
05Lost in a Contraption tabbass tab
06Knee Deep tabbass tab
07My Promiscuous Daughter tabbass tab
08Sara's Mask tabbass tab
09To All of You tabbass tab

 

1