Search tabs:
Browse artists: 0-9 | A | B | C | D | E | F | G | H | I | J | K | L | M | N | O | P | Q | R | S | T | U | V | W | X | Y | Z
/ CKY / CKY, Vol. 1 (2001) / Rio Bravo bass tab

Intro
DROP D

G:-------------------------------------------|
D:-7-6-5----------3--------------------------|
A:-------5--3-4-5---7-6-5--------------------|
D:------------------------7-5-6-7--7-6-5-3-0-|  X2

G:--------------------------------------------------|
D:-7-6-5----------3---------------------------------|
A:-------5--3-4-5---7-6-5--------------------------3|
D:------------------------7-5-6-7--7-6-5-3-0-3-4-5--|X1

G:-------------------|
D:-------------------|
A:-----------------3-|
D:-7-6-5-3-0-3-4-5---| X2


CKY albums
2005 An Answer Can Be Found
2002 Infiltrate Destroy Rebuild
2001 CKY, Vol. 2
2001 CKY, Vol. 1
CKY, Vol. 1 tabs
0196 Quite Bitter Beings tabbass tab
02Rio Bravo tabbass tab
03Disengage the Simulator tabbass tab
04The Human Drive in Hi-Fi tabbass tab
05Lost in a Contraption tabbass tab
06Knee Deep tabbass tab
07My Promiscuous Daughter tabbass tab
08Sara's Mask tabbass tab
09To All of You tabbass tab

 

1