Search tabs:
Browse artists: 0-9 | A | B | C | D | E | F | G | H | I | J | K | L | M | N | O | P | Q | R | S | T | U | V | W | X | Y | Z
/ CKY / CKY, Vol. 1 (2001) / Sara's Mask bass tab

Verse
|---------------------------------
|---------------------------------
|---------------------------------
|--2-5--7-----7-------7-\\2---2----

Chorus
|--------------------
|--------------------
|---7---2-5-2---10---
|--------------------
"And is it your face ....."



|---------------------------------------------------------------
|---------------------------------------------------------------
|--0-0--2-5-2-0---7-5-----------------------0-0--2-3-2-0--4-2---
|---------------------------------------------------------------
		"............so take my hand..."

|------------------------------------------------------------------------
|------------------------------------------------------------------------
|--2----------2--------0-0-0-0-0-0-0-2--2--------2--------0-0-0-0-0-0----
|------------------------------------------------------------------------


CKY albums
2005 An Answer Can Be Found
2002 Infiltrate Destroy Rebuild
2001 CKY, Vol. 2
2001 CKY, Vol. 1
CKY, Vol. 1 tabs
0196 Quite Bitter Beings tabbass tab
02Rio Bravo tabbass tab
03Disengage the Simulator tabbass tab
04The Human Drive in Hi-Fi tabbass tab
05Lost in a Contraption tabbass tab
06Knee Deep tabbass tab
07My Promiscuous Daughter tabbass tab
08Sara's Mask tabbass tab
09To All of You tabbass tab

 

1