Search tabs:
Browse artists: 0-9 | A | B | C | D | E | F | G | H | I | J | K | L | M | N | O | P | Q | R | S | T | U | V | W | X | Y | Z
/ CKY / CKY, Vol. 2 (2001) / Santa's Coming bass tab

Cky
Santas Coming

Verse Riff 1
|--------------------
|--7----2----7----2--
|--------------------
|--------------------

Verse Riff 2
|----------------
|----------------
|---2---6--7--4--
|----------------

Riff 3
|----------------
|----------------
|--6--9---6---7--
|-------7---9----
"santa clause is comin..."

Heavy Riff
|----------------------------------
|----------------------------------
|----------------------------------
|-0---0-0--3--2----2--2-2-2-2-2-2--


CKY albums
2005 An Answer Can Be Found
2002 Infiltrate Destroy Rebuild
2001 CKY, Vol. 2
2001 CKY, Vol. 1
CKY, Vol. 2 tabs
01Santa's Coming tabbass tab
05Shippensburg tabbass tab
09Genesis 12a tabbass tab
10Fat Fuck tabbass tab
11Testing tabbass tab
14Eye Of The Tiger tabbass tab
15Step To Cky tabbass tab
19Arto/Rowley Part tabbass tab
28Foreign Objects tabbass tab

 

1