Search tabs:
Browse artists: 0-9 | A | B | C | D | E | F | G | H | I | J | K | L | M | N | O | P | Q | R | S | T | U | V | W | X | Y | Z
/ CKY / CKY, Vol. 2 (2001) / Shippensburg bass tab

THIS IS DEFINATELY 100% CORRECT! EVERYBODYELSE THINKS THIS SONG IS CALLED SHIPPENSBAM, IT IS NOT, THIS IS THE PROPER SONG FROM VOLUME 2. ALL THE OTHER TABS WERE COMPLETELY WRONG ANY WAY! I KNOW THIS IS CORRECT BECAUSE I SENT IT TO THE CKY BASSIST, VERN, AND HE AGREED IT WAS CORRECT!

INTRO/MAIN RIFF
E:-------66-----33---3-------
A:-55-78-----------5---33---3
D:----------7-5-----------2--
G:---------------------------

VERSE
E:-55--33
A:-55----
D:-------
G:-------

AND NOW I'M ON THE WINGS.......
E:-1--/3--\\1--/3----------------
A:------------------------------
D:------------------------------
G:------------------------------

AND WHEN THE........
E:-11111111-33333333-11111111-3333333333333333
A:--------------------------------------------
D:--------------------------------------------
G:--------------------------------------------

SOLO
E:----66-33---
A:-55-------33
D:------------
G:------------

WE'LL DRIVE THE BAND TO SHIPPENSBURG AND HOPE.........
E:-----------------------------
A:-111111111/555555555\\33333333
D:-----------------------------
G:-----------------------------

FILL
E:-1-3-1-3
A:--------
D:--------
G:--------

END
E:----------------------------------
A:-1-3-1-3-1-3-1-3------------------
D:-----------------1-3-1-3-1-3-1-3~-
G:----------------------------------

RIFF 2
E:------6666-3333-----
A:-5555-----------3333
D:--------------------
G:--------------------


CKY albums
2005 An Answer Can Be Found
2002 Infiltrate Destroy Rebuild
2001 CKY, Vol. 2
2001 CKY, Vol. 1
CKY, Vol. 2 tabs
01Santa's Coming tabbass tab
05Shippensburg tabbass tab
09Genesis 12a tabbass tab
10Fat Fuck tabbass tab
11Testing tabbass tab
14Eye Of The Tiger tabbass tab
15Step To Cky tabbass tab
19Arto/Rowley Part tabbass tab
28Foreign Objects tabbass tab

 

1