Search tabs:
Browse artists: 0-9 | A | B | C | D | E | F | G | H | I | J | K | L | M | N | O | P | Q | R | S | T | U | V | W | X | Y | Z
/ CKY / Infiltrate Destroy Rebuild (2002) / Shock & Terror bass tab

CKY - Shock and Terror
Submitted By: Turdman77
EMail: Turdman77@hotmail.com


Beginning (play very beginning once then the rest of the time play main)
------------------
--0---0-2-4-------
4---4-------0-----
---------------2-0

 Main
----------------------
0-0-2-0----0-2-4------
---------2-------0----
-------------------2-0

 Verse
-----------------------------
------0--------------0---2---
2---2--4-0-4-2---2-----4-----
----------------------------3

 Chourus
----------------
-------0--------
2-0-2---20---20-
----------2----2

CKY roCK~


CKY albums
2005 An Answer Can Be Found
2002 Infiltrate Destroy Rebuild
2001 CKY, Vol. 2
2001 CKY, Vol. 1
Infiltrate Destroy Rebuild tabs
01Escape From Hellview tabbass tab
02Flesh Into Gear tabbass tab
03Sink Into the Underground tabbass tab
04Attached at the Hip tabbass tab
05Frenetic Amnesic tabbass tab
06Shock & Terror tabbass tab
07Plastic Plan tabbass tab
08Inhuman Creation Station tabbass tab
09Sporadic Movement tabbass tab
10Close Yet Far tabbass tab

 

1