Search tabs:
Browse artists: 0-9 | A | B | C | D | E | F | G | H | I | J | K | L | M | N | O | P | Q | R | S | T | U | V | W | X | Y | Z
/ CKY / Infiltrate Destroy Rebuild (2002) / Sporadic Movement bass tab

SPORADIC MOVEMENT (Bassline)
                               As recorded by CKY
                (From the 2002 Album INFILTRATE.DESTROY.REBUILD.)

Words and Music by Deron Miller w/ Chad Ginsburg and Jess Margera
Arranged by Marco Vignali
Transcribed by Marco Vignali

Gtr I (E A D G) - 'Untitled'

 Intro
  Fast Rock Q=215
  N.C.
 4/4
       Gtr I
  H    E E E E     W          H    E E E E  4x Q  Q  Q  Q    Q  Q  Q  Q
|--------------||-----------|---------------||-------------|--------------||
|--------------||o----------|--------------o||-9--9--7--5--|-4------------||
|--------------||o----------|--------------o||-------------|----5--7--5---||
|------5-8-5-3-||-----------|------5-8-5-3--||-------------|--------------||


   Verse
    W          H    E E E E   W          H    E E E E
||-----------|--------------|----------|---------------||
||o----------|--------------|----------|--------------o||
||o----------|--------------|----------|--------------o||
||-----------|------5-8-5-3-|----------|------5-8-5-3--||


  PM-------------------------------------------------|
  Q  Q  Q  Q    Q  Q  Q  Q    Q  Q  Q  Q    Q  Q  Q  Q
|-------------|-------------|-------------|--------------|
|-------------|-------------|-------------|--------------|
|-------------|-------------|-------------|--------------|
|-1--1--1--1--|-1--1--1--1--|-1--1--1--1--|-1--1--1--1---|


  $
  W          H    E E E E   W          H    E E E E
|----------|--------------|----------|---------------|
|----------|--------------|----------|---------------|
|----------|--------------|----------|---------------|
|----------|------5-8-5-3-|----------|------5-8-5-3--|


  PM------------------------------------------------------------------|
  E E E E E E E E   E E E E E E E E   E E E E E E E E   E E E E E E E E
|-----------------|-----------------|-----------------|------------------|
|-----------------|-----------------|-----------------|------------------|
|-----------------|-----------------|-----------------|------------------|
|-1-1-1-1-1-1-1-1-|-1-1-1-1-1-1-1-1-|-1-1-1-1-1-1-1-1-|-1-1-1-1-1-1-1-1--|


  PM------------------------------------------------------------------|
  E E E E E E E E   E E E E E E E E   E E E E E E E E   E E E E E E E E
|-----------------|-----------------|-----------------|------------------||
|-----------------|-----------------|-----------------|------------------||
|-----------------|-----------------|-----------------|------------------||
|-3-3-3-3-3-3-3-3-|-3-3-3-3-3-3-3-3-|-3-3-3-3-3-3-3-3-|-3-3-3-3-3-3-3-3--||


   Chorus
                                                     To Coda
    E Q.   H      E Q.   H      E Q.   H      E Q.   Q  E E    4x
||--------------|-------------|-------------|------------------||
||o-------------|-------------|-------------|-----------------o||
||o-------------|-------------|-------------|-----------------o||
||--5-5\--------|-5-5\--------|-3-3\--------|-1-1\------3-3----||


 Pre-Verse
  E E E E E E E E   E E E E E E E E     W          H    E E E E   4x
|---9-----8-----9-|-----8-----------||-----------|----------------||
|-7---7-7---7-7---|-7-7-------------||o----------|---------------o||
|-----------------|-----------------||o----------|---------------o||
|-----------------|---------5-8-5-3-||-----------|------5-8-5-3---||


  Q  Q  Q  Q    Q  Q  Q  Q
|-------------|-------------||
|-9--9--7--5--|-4-----------||
|-------------|----5--7--5--||
|-------------|-------------||


   Verse
    W          H    E E E E   W          H    E E E E
||-----------|--------------|----------|---------------||
||o----------|--------------|----------|--------------o||
||o----------|--------------|----------|--------------o||
||-----------|------5-8-5-3-|----------|------5-8-5-3--||


                                                          D.S. al Coda
  PM------------------------------------------------------------------|
  E E E E E E E E   E E E E E E E E   E E E E E E E E   E E E E E E E E
|-----------------|-----------------|-----------------|------------------||
|-----------------|-----------------|-----------------|------------------||
|-----------------|-----------------|-----------------|------------------||
|-1-1-1-1-1-1-1-1-|-1-1-1-1-1-1-1-1-|-1-1-1-1-1-1-1-1-|-1-1-1-1-1-1-1-1--||


   Interlude
    &
    W          W          W          W     4x
||-----------|----------|----------|-------||
||o----------|----------|----------|------o||
||o----------|----------|----------|------o||
||-----------|----------|----------|-------||


 Outro
  W          +W           +W           +W
|----------|------------|------------|--------|
|----------|------------|------------|--------|
|----------|------------|------------|--------|
|-5--------|-(5)--------|-(5)--------|-(5)----|


  W          +W           +W           +H.      +Q
|----------|------------|------------|-----------------|
|----------|------------|------------|-----------------|
|----------|------------|------------|-----------------|
|-3--------|-(3)--------|-(3)--------|-(3)------(3)/---|


    W          H    E E E E  8x W          W
||-----------|---------------||----------|------*|
||o----------|--------------o||----------|------*|
||o----------|--------------o||----------|------*|
||-----------|------5-8-5-3--||----------|------*|


CKY albums
2005 An Answer Can Be Found
2002 Infiltrate Destroy Rebuild
2001 CKY, Vol. 2
2001 CKY, Vol. 1
Infiltrate Destroy Rebuild tabs
01Escape From Hellview tabbass tab
02Flesh Into Gear tabbass tab
03Sink Into the Underground tabbass tab
04Attached at the Hip tabbass tab
05Frenetic Amnesic tabbass tab
06Shock & Terror tabbass tab
07Plastic Plan tabbass tab
08Inhuman Creation Station tabbass tab
09Sporadic Movement tabbass tab
10Close Yet Far tabbass tab

 

1