Search tabs:
Browse artists: 0-9 | A | B | C | D | E | F | G | H | I | J | K | L | M | N | O | P | Q | R | S | T | U | V | W | X | Y | Z
/ Creedence Clearwater Revival / Green River (1969) / Bad Moon Rising bass tab

-Bad moon rising-
-Creedence Clearwater Revival-
-Tabbed by giom(gui.braize@caramail.com)-

Intro :

G-77-77------
D-------7-5--
A------------
E------------

Verse 1:

G----------
D----------
A-5-5-5-5--
E----------

  "I see..."
G------------------
D------------------ x4
A-5-5-----5-5-5-5--
E-----5-3----------

Chorus 1:

G----------------------------------
D----------------------------------
A---------5-5-5-5---------5-5-5-5--
E-3-3-3-3---------3-3-5-5----------

Verse 2:
"I hear..."
G------------------
D------------------ x4
A-5-5-----5-5-5-5--
E-----5-3----------

Chorus 2:

G----------------------------------
D----------------------------------
A---------5-5-5-5---------5-5-5-5--
E-3-3-3-3---------3-3-5-5----------

Verse 3:(guitar solo)

G-----------------------------------------------------------------
D-----------------------------------------------------------------
A-55-55-------5-5-5-5-55-------5-5-5-5--------------55-555-55-55--
E-------55-33------------55-33---------33-333-33-33---------------

G-----------------------
D-----------------------
A---------5555555555----
E-555-333---------------

Verse 4:
"Hope you ..."
G------------------
D------------------ x4
A-5-5-----5-5-5-5--
E-----5-3----------

Chorus 5&6:

G----------------------------------
D----------------------------------
A---------5-5-5-5---------5-5-5-5--
E-3-3-3-3---------5-5-3-3----------

Verse variation :

G---------------------
D--------------------- x4
A-5-5-----5---3-5---3-
E-----5-3---5-----5---	

Chorus variation :

G---------------------------------------------------
D---------------------------------------------------
A---------345-5-5-55------------------5-55-5-5-55-5-
E-3-3-3-3-------------5-55-5----3-33-3--------------


Creedence Clearwater Revival albums
2004 Platinum
1972 Mardi Gras
1970 Pendulum
1970 Cosmo's Factory
1969 Willy and the Poor Boys
1969 Green River
1969 Bayou Country
1968 Creedence Clearwater Revival
Green River tabs
01Green River tabbass tab
02Commotion tabbass tab
03Tombstone Shadow tabbass tab
04Wrote a Song for Everyone tabbass tab
05Bad Moon Rising tabbass tab
06Lodi tabbass tab
07Cross-Tie Walker tabbass tab
08Sinister Purpose tabbass tab
09The Night Time Is the Right Time tabbass tab

 

1