Search tabs:
Browse artists: 0-9 | A | B | C | D | E | F | G | H | I | J | K | L | M | N | O | P | Q | R | S | T | U | V | W | X | Y | Z
/ Dido / No Angel (1999) / Thank You bass tab

Intro

 |1 + 2 + 3 + 4 + |1 + 2 + 3 + 4 + |
G|----------------|----------------|
D|--------4 mesures  vide---------|
A|----------------|----------------|
E|----------------|----------------|



 | 1 + 2 + 3 + 4 + |
G|-------889-------|
D|-6---------------|
A|-----------------|
E|-----------------| x8



Couplet 1

 |1 + 2 + 3 + 4 + |1 + 2 + 3 + 4 + |
G|-------89-------|11--------------|
D|6---------------|--------9---8---|
A|----------------|----------------|
E|----------------|----------------| x3


 |1 + 2 + 3 + 4 + |1 + 2 + 3 + 4 + |
G|-------89-------|-------89-9-9---|
D|6---------------|6---------------|
A|----------------|----------------|
E|----------------|----------------| x1


 |1 + 2 + 3 + 4 + |
G|------889-------|
D|6---------------|
A|----------------|
E|----------------| x2



Couplet 2


 |1 + 2 + 3 + 4 + |1 + 2 + 3 + 4 + |1 + 2 + 3 + 4 + |1 + 2 + 3 + 4 + |
G|-------89-------|----------------|----------------|----------------|
D|6---------------|----------------|----------------|----------------|
A|----------------|----------------|----------------|----------------|
E|--------------0-|2------------025|4-------------0-|2------------025|


 |1 + 2 + 3 + 4 + |1 + 2 + 3 + 4 + |1 + 2 + 3 + 4 + |1 + 2 + 3 + 4 + |
G|----------------|----------------|----------------|--8-8-8-9-9-9-8-|
D|----------------|----------------|----------------|----------------|
A|----------------|----------------|----------------|----------------|
E|4-------------0-|2------------025|4-------------12|6---------------|




Jusqu' la fin...

 |1 + 2 + 3 + 4 + |1 + 2 + 3 + 4 + |1 + 2 + 3 + 4 + |1 + 2 + 3 + 4 + |
G|----------------|----------------|----------------|----------------|
D|------------1---|2-----------4---|------------1---|2---------------|
A|-2---x-----2---2|----------------|2----x-----2---2|----------------|
E|----------------|----------------|----------------|------------4---|


 |1 + 2 + 3 + 4 + |1 + 2 + 3 + 4 + |1 + 2 + 3 + 4 + |1 + 2 + 3 + 4 + |
G|----------------|----------------|----------------|----------------|
D|------------1---|2-----------4---|----------------|----------------|
A|-2----x----2---2|----------------|6-----------6---|4---------------|
E|----------------|----------------|----------------|----------------| x5


Dido albums
2003 Life for Rent
1999 No Angel
No Angel tabs
01Here With Me tabbass tab
02Hunter tabbass tab
03Don't Think of Me tabbass tab
04My Lover's Gone tabbass tab
05All You Want tabbass tab
06Thank You tabbass tab
07Honestly OK tabbass tab
08Slide tabbass tab
09Isobel tabbass tab
10I'm No Angel tabbass tab
11My Life tabbass tab

 

1