Search tabs:
Browse artists: 0-9 | A | B | C | D | E | F | G | H | I | J | K | L | M | N | O | P | Q | R | S | T | U | V | W | X | Y | Z
/ Disturbed / Believe (2002) / Breathe bass tab

Band: Disturbed
Song: Breathe
Album: Believe

Fuzz Tunes: low to high (Bb Db Ab Db Gb) but you don't need the low Bb in this song

Verse:

Gb------------------------------------------------
Db-----------7-----7-----9------------7-----------
Ab-0--7--0h7---0h7----7-----0--7--0h7---5----3----
Db-----------------------------------------5---3--

Pre-Chorus:

Gb---------------------------------------------------------------------------------
Db-0-0-0-0-0-0-0-0-33333--3333--33-------------------------------------------------
Ab---------------------------------------------------------------------------------
Db----------------------------------00000--0000-00--33333--3333-33--00000-0000-00--

Gb----------------------------------------------
Db----------------------------------------------
Ab----------------------------------------------
Db-33333-3333-33--00000-0000-00--3-3-3-3-3-3-3-3

Chorus:

Gb--------------------------------------------------------------------
Db--------------------------------------------------------------------
Ab--------------------------------------------------------------------
Db-7-7--5-5--0-0--0--0--0-0-0--3-3-5p3-3-3-3-3h5-3-5-5-7p5-5-5-5-5h7-5

I think you can figure out the interlude, theres almost nothing to it, and timing should be easy to figure out, there might be some variation to the riffs, but they're pretty solid


Disturbed albums
2005 Ten Thousand Fists
2002 Believe
2000 The Sickness
Believe tabs
01Prayer tabbass tab
02Liberate tabbass tab
03Awaken tabbass tab
04Believe tabbass tab
05Remember tabbass tab
06Intoxication tabbass tab
07Rise tabbass tab
08Mistress tabbass tab
09Breathe tabbass tab
10Bound tabbass tab
11Devour tabbass tab
12Darkness tabbass tab

 

1