Search tabs:
Browse artists: 0-9 | A | B | C | D | E | F | G | H | I | J | K | L | M | N | O | P | Q | R | S | T | U | V | W | X | Y | Z
/ Disturbed / Believe (2002) / Darkness bass tab

Disturbed
Darkness

Transcribed By: Ryan Huntsman  (IbanezBassMX)
Email: Ryan82184@aol.com

5-String bass

Tuning: tuned down to Drop D, then tuned down one half step
low to high: (Bb, Db, Ab, Db, Gb)

This tab is 100% correct, no doubts about it, see for yourself.

Intro  (0:00)
Gb----------------------
Db----------------------  X2
Ab----------------------
Db-2-----5-----2-----5--
Bb----------------------

Verse  (0:22)
Don't turn away...
Gb----------------------
Db----------------------  X2
Ab----------------------
Db-2-----5-----2-----5--
Bb----------------------

Chorus  (0:44)
Darkness cover me...
Gb---------------
Db---------------  X3
Ab-3-----2--0----
Db------------2--
Bb---------------

Gb---------------
Db----------0-0--
Ab-3-----3-------
Db---------------
Bb---------------

(1:07)
On my own...
Gb----------------------
Db----------------------  X2
Ab----------------------
Db-2-----5-----2-----5--
Bb----------------------

Verse  (1:18)
Carry me away...
Gb----------------------
Db----------------------  X2
Ab----------------------
Db-2-----5-----2-----5--
Bb----------------------

Chorus  (1:40)
Darkness cover me...
Gb---------------
Db---------------  X3
Ab-3-----2--0----
Db------------2--
Bb---------------

Gb---------------
Db----------0-0--
Ab-3-----3-------
Db---------------
Bb---------------

Bridge  (2:02)
On my own...
Gb----------
Db----------  X4
Ab----------
Db-2--------
Bb-------0--

Interlude  (2:25)
Gb----------------------
Db----------------------  X2
Ab----------------------
Db-2-----5-----2-----5--
Bb----------------------

Verse  (2:47)
Gb----------------------
Db----------------------
Ab----------------------
Db-2-----5-----2-----5--
Bb----------------------

Chorus  (2:58)
Darkness cover me...
Gb---------------
Db---------------  X3
Ab-3-----2--0----
Db------------2--
Bb---------------

Gb---------------
Db----------0-0--
Ab-3-----3-------
Db---------------
Bb---------------

Outro  (3:21)
Gb----------------------
Db----------------------  X2
Ab----------------------
Db-2-----5-----2-----5--
Bb----------------------

Gb------
Db------
Ab------
Db-2~~--
Bb------

Thats it, pretty cool song to play, easy.
Disturbed song book.
Please rate this tab, Thanks.


Disturbed albums
2005 Ten Thousand Fists
2002 Believe
2000 The Sickness
Believe tabs
01Prayer tabbass tab
02Liberate tabbass tab
03Awaken tabbass tab
04Believe tabbass tab
05Remember tabbass tab
06Intoxication tabbass tab
07Rise tabbass tab
08Mistress tabbass tab
09Breathe tabbass tab
10Bound tabbass tab
11Devour tabbass tab
12Darkness tabbass tab

 

1