Search tabs:
Browse artists: 0-9 | A | B | C | D | E | F | G | H | I | J | K | L | M | N | O | P | Q | R | S | T | U | V | W | X | Y | Z
/ Disturbed / Believe (2002) / Prayer bass tab

Band: Disturbed
Song: Prayer
Tuning: Dropped D
Tabbed by: Dustin (crazylefty182@aol.com)

Intro
G|-----------------------------------------|
D|-----------------------------------------|
A|-----------------------------------------|
D|-0---0-0--2-0-2-0----0---0-0--2-0-2-0----|

Verse:
G|------------------------------------------------------------------------------|
D|------------------------------------------------------------------------------|
A|------------------------------------------------------------------------------|
D|--0--0-0--0-0-0-0----0---0-0--0-0-0-0---5---5-5--5-5-5-5----0---0-0-2-0-2-0---|

Pre-chorus:
G|--------------------------|
D|--------------------------|
A|--------------------------|
D|--6\\--1---1-1--1-1---/7---|

Chorus:
G|-----------------------------------------------------|
D|-----------------------------------------------------|
A|-----------------------------------------------------|
D|-7-7-7-7-7---2-2---9-9-9---7-7-7-7-7---11-11---9-9-9-|

Post-Chorus:
G|----------------------------------------|
D|----------------------------------------|
A|----------------------------------------|
D|--3---3-3--3-3-3-3----3---3-3--3-3-3-3--|

Breakdown:
G|-----------------------------------------------------------|
D|-----------------------------------------------------------|
A|-----------------------------------------------------------|
D|--1-1--0-1---1-1--0-1----1--0--1----1--0--1-----1---0---2--|

Outro:
G|-----------------------------------------------------------------|
D|-----------------------------------------------------------------|
A|-----------------------------------------------------------------|
D|--0---0-0--0-0-0-0----0---0-0--0-0-0-0----0---0-0--0-0-0-0----0--|

Please email me with comments and/or suggestions.  Thanks!  Shouts out to Disturbed for this totally sweet song!


Disturbed albums
2005 Ten Thousand Fists
2002 Believe
2000 The Sickness
Believe tabs
01Prayer tabbass tab
02Liberate tabbass tab
03Awaken tabbass tab
04Believe tabbass tab
05Remember tabbass tab
06Intoxication tabbass tab
07Rise tabbass tab
08Mistress tabbass tab
09Breathe tabbass tab
10Bound tabbass tab
11Devour tabbass tab
12Darkness tabbass tab

 

1