Search tabs:
Browse artists: 0-9 | A | B | C | D | E | F | G | H | I | J | K | L | M | N | O | P | Q | R | S | T | U | V | W | X | Y | Z
/ Disturbed / The Sickness (2000) / Meaning of Life bass tab

Artist:    Disturbed	
Title:     Meaning of life
Album:  The Sickness
Tuning:  5-string Bass in Drop D: (Bb, Db, Ab, Db, Gb)
Tabbed by: srxibanez
This may seem long but its it the order of the song so you wont have to look back.


Intro:  Start at 00:07


Gb|----------------------------|
Db|----------------------------|
Ab|----------------------------|
Db|----------------------------|
Bb|-02---02---02---02---2-|


Verse:  Start at 00:23
Gb|-----------------------------------------------------------------------------------------|	
Db|*---------------------------------------------------------------------------------------*|
Ab|-----------------------------------------------------------------------------------------|   X8
Db|*---------------------------------------------------------------------------------------*|
Bb|-32---22---2222---22---222---22/5-732---22---2222---22--32--2--3--5--6-|


Bridge:Start at 01:31

Gb|----------------------------|
Db|--------------------------|
Ab|----------------------------|
Db|--------------------------|
Bb|-23232---23232---235-|

Bridge2

Gb|----------------------------|
Db|----------------------------|
Ab|----------------------------|
Db|----------------------------|
Bb|-23232---23232---232-|




Verse:Start at 01:38


Gb|--------------------------------------------------------------------------------------|	
Db|*------------------------------------------------------------------------------------*|
Ab|--------------------------------------------------------------------------------------|  X6
Db|*------------------------------------------------------------------------------------*|
Bb|-32---22---2222---22---222---22/5-732---22---2222---22--32--2-3-5-6-|


Bridge:Start at 02:31

Gb|----------------------------|
Db|---------------------------|
Ab|----------------------------|
Db|--------------------------|
Bb|-23232---23232---235-|



Bridge2

Gb|----------------------------|
Db|----------------------------|
Ab|----------------------------|
Db|----------------------------|
Bb|-23232---23232---232-|


Mini bass solo:Start at 02:39

Gb|-------------------------------------|
Db|*----------------------------------*|
Ab|-------------------------------------|  X3
Db|*--------------------------------8-*|
Bb|-22---22---222---22---22/9-----|




Gb|-------------------------------|
Db|-------------------------------|
Ab|-------------------------------|
Db|-------------------------------|
Bb|-22---22---222---22---22-|



Interlube:Start at 02:54

Gb|-------------------------------------|
Db|*----------------------------------*|
Ab|-------------------------------------|  X8
Db|*--------------------------------8-*|
Bb|-22---22---222---22---22/9-----|


Verse:Start at 03:26

Gb|--------------------------------------------------------------------------------------|	
Db|*------------------------------------------------------------------------------------*|
Ab|---------------------------------------------------------------------------------------|  X2
Db|*------------------------------------------------------------------------------------*|
Bb|-32---22---2222---22---222---22/5-732---22---2222---22--32--2-3-5-6-|
	


Gb|-------------------------------------------|	
Db|*----------------------------------------*|
Ab|-------------------------------------------|  X3
Db|*----------------------------------------*|
Bb|-32---22---2222---22---222---22/5-|





Gb|------------------------------------------------------------|	
Db|------------------------------------------------------------|
Ab|------------------------------------------------------------|
Db|------------------------------------------------------------|
Bb|-32---22---2222---22---222---22/5--2/5--2/5--2/5-|


Disturbed albums
2005 Ten Thousand Fists
2002 Believe
2000 The Sickness
The Sickness tabs
01Voices tabbass tab
02The Game tabbass tab
03Stupify tabbass tab
04Down With The Sickness tabbass tab
05Violence Fetish tabbass tab
06Fear tabbass tab
07Numb tabbass tab
08Want tabbass tab
09Conflict tabbass tab
10Shout 2000 tabbass tab
11Droppin' Plates tabbass tab
12Meaning of Life tabbass tab

 

1