Search tabs:
Browse artists: 0-9 | A | B | C | D | E | F | G | H | I | J | K | L | M | N | O | P | Q | R | S | T | U | V | W | X | Y | Z
/ Disturbed / The Sickness (2000) / The Game bass tab

Tab:THe Game
ALmbum: the sickness
Artist: DIsturbed
Tabbed by brian lamb

G|-8-8-8-8-9-9-9-9-8-8-8-8-6-6-----
D|-----------------------------4-4-
A|6-6-6-6-7-7-7-7-6-6-6-6-4-4------
E|----------------------------2-2--

G|----------------------------------------------2
D|------------------234-0242----------------0234-
A|6-6666-6667--0456---------6-6666-6667-0456-----
E|-----------------------------------------------

G|-----------------------------------------
D|111-11-111-111-11-111-111-11-111-01111222
A|-----------------------------------------
E|-----------------------------------------

G|-------------------
D|-------------------
A|6xxx-776-----------
E|--------0h5h7-0h5h7


Disturbed albums
2005 Ten Thousand Fists
2002 Believe
2000 The Sickness
The Sickness tabs
01Voices tabbass tab
02The Game tabbass tab
03Stupify tabbass tab
04Down With The Sickness tabbass tab
05Violence Fetish tabbass tab
06Fear tabbass tab
07Numb tabbass tab
08Want tabbass tab
09Conflict tabbass tab
10Shout 2000 tabbass tab
11Droppin' Plates tabbass tab
12Meaning of Life tabbass tab

 

1