Search tabs:
Browse artists: 0-9 | A | B | C | D | E | F | G | H | I | J | K | L | M | N | O | P | Q | R | S | T | U | V | W | X | Y | Z
/ Early November / The Room's Too Cold (2003) / Fluxy bass tab

******************************
* The Early November - Fluxy *
******************************

Intro
G|-------------------------------------------------------|
D|-000000000---------------------------------------------|
A|-----------444444444-22222222----00000000----222222222-|
E|------------------------------44----------00-----------|

G|-----------------------------|---------------------------|
D|-----------------------------|*-------------------------*|
A|-0000---2222---0000---2222---|*-00000000----22222222----*|
E|------0------0------0------0-|-----------00----------00--|

This is where he starts to sing: leat each chord ring
"it's not fair to find you there"....

Verse:
G|------------------------------------------------------------------|
D|------------------------------------------------------------------|
A|-5555555-7777777-9999999-7777777-10-10-10-10-55555555-12-12-12-12-|
E|------------------------------------------------------------------|

Chorus: (wait and see that you are....)
G|-----------------------------|---------------------------|
D|-----------------------------|*-------------------------*|
A|-0000---2222---0000---2222---|*-00000000----22222222----*|
E|------0------0------0------0-|-----------00----------00--|

Verse:
G|------------------------------------------------------------------|
D|------------------------------------------------------------------|
A|-5555555-7777777-9999999-7777777-10-10-10-10-55555555-12-12-12-12-|
E|------------------------------------------------------------------|


Chorus
Intro
Chorus

End
G|--------------------------------------|
D|--------------------------------------|
A|--------------------------------------|
E|-5555-00--7-----------------5555-00-7-|


|-------------------------------------------------------------------|
|                       optional verse                              |
|-------------------------------------------------------------------|

G|--------------------------------------|
D|-0-------0-----6------0-------0-----6-|
A|---4-0-2---4-0----------4-0-2---4-0---|
E|--------------------------------------|

this is a correction of my last version, all i did was mess up the riff labels!lol...

**********************************
* OWL BOI (owl__boy@hotmail.com) *
**********************************


Early November albums
2005 The Acoustic EP
2005 The Early November/I Am the Avalanche
2003 The Room's Too Cold
2002 For All of This
The Room's Too Cold tabs
01Ever So Sweet tabbass tab
03The Mountain Range in My Living Room tabbass tab
04Sesame, Smeshame tabbass tab
05Baby Blue tabbass tab
06The Course of Human Life tabbass tab
07Dinner at the Money Table tabbass tab
09My Sleep Pattern Changed tabbass tab
10Fluxy tabbass tab

 

1