Search tabs:
Browse artists: 0-9 | A | B | C | D | E | F | G | H | I | J | K | L | M | N | O | P | Q | R | S | T | U | V | W | X | Y | Z
/ Eels / Daisies Of The Galaxy (2000) / Something Is Sacred bass tab

Song: Something is Sacred
Artist: Eels
Album: Daisies of the Galaxy (2000)
Tabbed by: Marc Hibbins (marc97071@yahoo.com)

Standard Tuning

 Chorus One & Two
G|----------------------------------------------| 
D|----------------------------------------------| 
A|--3-xx--3-xx--3-xx--3-------------------------| 
E|----------------------5--3-xx--3-xx--3-xx--3--| x2

-|-----------------7-------| Don't let notes ring
-|------------7------------| when switching strings
-|--5----------------------| 
-|-------------------------| Hold last note


 Verse One
G|-----------------------------------------| 
D|-----------------------------------------| 
A|--7-------5--5--5------------------------| 
E|--------------------5-------3----(3-5-3)-| 

G|-----------------------------------------| 
D|-----------------------------------------| 
A|--7-------5--5---------------------------| 
E|--------------------5-------3--3--(3)/5--| 

G|-----------------------------------------| 
D|-----------------------------------------| 
A|--7----7--5--5----5----------------------| 
E|--------------------5-------3--3--(3)/5--| 


 Post Chorus 2
G|-----------------------------------------| 
D|-----------------------------------------| 
A|--7---7-6-5--5----5----------------------| 
E|--------------------5------x3--3--3--5---| 

G|-----------------------------------------| 
D|-----------------------------------------| 
A|--7-------5--5----5----------------------| 
E|--------------------5-----5-3--3--3--5---| 


 Verse Two
G|-----------------------------------------| 
D|-----------------------------------------| 
A|--7-------5--5---------------------------| 
E|--------------------5-------3--3--3--5---| 

G|-----------------------------------------| 
D|-----------------------------------------| 
A|--7-------5------------------------------| 
E|--------------------5-------(3)----------| 


 Chorus Three
G|-----------------------------------------| 
D|--10----10----------10----10-------------| 
A|-----------10----10----------10----------| 
E|-----------------------------------------| 

-|-------------------------| Don't let notes ring
-|-----------------12------| when switching strings
-|------------12-----------| 
-|--10---------------------| Hold last note

-|------------------------------------------------| 
-|------------------------------------------------| 
-|--7-xx--7-xx--5-xx--5-xx------------------------| 
-|-------------------------5-xx--5-xx--3-xx--3-5--| x2

-|-------------------------| 
-|-------------------------| 
-|-------------------------| Let ring, play octave above
-|-0-----------------------| if you wish

Any Problems, email me: marc97071@yahoo.com


Eels albums
2005 Blinking Lights and Other Revelations
2003 Shootenanny!
2001 Souljacker
2000 Daisies Of The Galaxy
1998 Electro-Shock Blues
1996 Beautiful Freak
Daisies Of The Galaxy tabs
01Grace Kelly Blues tabbass tab
02Packing Blankets tabbass tab
03The Sound Of Fear tabbass tab
04I Like Birds tabbass tab
05Daisies Of The Galaxy tabbass tab
06Flyswatter tabbass tab
07It's A Motherf!@r tabbass tab
09Tiger In My Tank tabbass tab
10A Daisy Through Concrete tabbass tab
11Jeannie's Diary tabbass tab
12Wooden Nickels tabbass tab
13Something Is Sacred tabbass tab
14Selective Memory tabbass tab
15Mr. E's Beautiful Blues tabbass tab

 

1