Search tabs:
Browse artists: 0-9 | A | B | C | D | E | F | G | H | I | J | K | L | M | N | O | P | Q | R | S | T | U | V | W | X | Y | Z
/ Elton John / Goodbye Yellow Brick Road (1973) / Harmony bass tab

Harmony by Elton John


    0:00
Gb--|-----|--------------------|--------------------|--------------------|------
Db--|-----|--------------------|--------------------|--------------------|------
Ab--|-----|--7-----------------|--5-----------------|--------------------|------
Eb--|--7--|-----------------5--|--------------3--4--|--5--------3--------|------

Gb-----------------------|----------------------------|-------------------------
Db-----------------------|----------------------------|-------------------------
Ab--7--------------------|----------------------------|--7-----7--7-------------
Eb--------5--6--7--------|-----(5)h7-----(5)h7-----7--|-----------------5/7-----

Gb--|-----------------------|--------------------|-----------------|------------
Db--|-----------------------|--------------------|-----------------|--(7)h9-----
Ab--|--5-----5--5-----------|--------------------|--7--------------|------------
Eb--|-----------------7--6--|--5-----5--3-----3--|--------5--7-----|------------

                             0:33
Gb---------------------------|--------9-----------6-----6-----|-----------------
Db--(7)h9-----9--7-----6-----|-----------6--7-----------------|--9-----9--------
Ab------------------------9--|--7--------------------------7--|-----------------
Eb---------------------------|--------------------------------|-----------------

Gb-----------------------|--------11-----------------------------|--------------
Db--9--9-----7--6--------|---------------11--10--9-----(7)h9--9--|--------------
Ab-----------------9--7--|--9------------------------------------|--7-----6-----
Eb-----------------------|---------------------------------------|--------------

Gb--------------------|-----------------------|---------------------|-----------
Db--------------------|-----------------------|---------------------|-----------
Ab--4-----4-----------|--------4--2-----4--6--|--7--------7-----11--|--9--------
Eb-----0--------0--1--|--2--------------------|--------7------------|-----------

Gb---------------------------|---------------------------------|----------------
Db--11--10--9-----(9)h11--9--|---------------------------------|----------------
Ab---------------------------|--7-----6--7-----4--------(2)h4--|----------------
Eb---------------------------|-----------------------4---------|--5-----5--7----

                                  1:09
Gb-----------|--------------------|--------------------|------------------------
Db-----------|--------------------|--------------------|------------------------
Ab-----4--6--|--7-----------------|--7-----7--7--------|--5-----------5---------
Eb-----------|--------------5--7--|-----------------5--|--------5---------------

Gb--------|------------------------|--------------------------|-----------------
Db--------|------------------------|--------5--7--(7)h9-----9\|--5-----4--------
Ab--------|------------------------|--7-----------------------|-----------7-----
Eb--3--4--|--5-----(3)h5--3-----3--|--------------------------|-----------------

                                                       1:31
Gb----------------|------------------------------------|--------9---------------
Db----------------|-----------(7)h9-----9--7--6--------|-----------6--7---------
Ab--5-------------|--------9------------------------9--|--7---------------------
Eb--------2/5--6--|--7---------------------------------|------------------------

Gb--------------|-------------------------------------|-------------------------
Db--7--6--------|--9-----(7)h9-----(7)h9--6--7--------|-------------------------
Ab--------9--7--|-------------------------------9--7--|--9----------------------
Eb--------------|-------------------------------------|--------9--8--7----------

Gb------------|-------------------------|-------------------------|-------------
Db------------|-------------------------|-------------------------|--------9----
Ab------------|--7-----7--6-------------|----------------------6--|--7----------
Eb--(5)h7--5--|--------------9-----8--7\|--2-----2/5--6--7--------|-------------

Gb--------------------|--------------------------|------------------------------
Db-----(9)h11--9------|--------------------------|------------------------------
Ab----------------11--|--9--------------------6--|--7-----6--4-----4------------
Eb--------------------|--------9--8--7-----9-----|--------------------7--4------

Gb--|-----------------------|--------------------|--------6-----4---------------
Db--|-----------------------|--------------------|--------------------6---------
Ab--|-----------------4--6--|--7--------7-----6--|--4---------------------------
Eb--|--5-----5--7-----------|--------------------|------------------------------

    2:11
Gb--|--------------------------|--------------------------|---------------------
Db--|--------7-----6-----------|--------6-----4-----------|--------4-----2------
Ab--|--------------------7-----|--------------------6-----|---------------------
Eb--|--5-----------------------|--4-----------------------|--2------------------

Gb-----------|--------------------------|--------------------------|------------
Db-----------|--------5-----4-----------|--------7-----------------|------------
Ab-----4-----|--------------------5-----|--------------7-----------|------------
Eb-----------|--3-----------------------|--5-----------------5-----|--0---------

Gb------------------------|------------------------------|----------------------
Db------------------------|--------7---------------------|----------------------
Ab--7-----(5)h7-----------|--------------(5)h7-----4-----|--7-------------------
Eb------------------0--3--|--5------------------------7--|----------------------

Gb--||--------------------------------------------------------------------------
Db--||--------------------------------------------------------------------------
Ab--||--------------------------------------------------------------------------
Eb--||--------------------------------------------------------------------------


Elton John albums
2001 Songs from the West Coast
1999 Aida
1997 Big Picture
1993 Duets
1992 The One
1989 Sleeping With the Past
1988 Reg Strikes Back
1983 Too Low for Zero
1982 Jump Up!
1976 Blue Moves
1975 Rock of the Westies
1975 Captain Fantastic and the Brown Dirt Cowboy
1974 Caribou
1973 Goodbye Yellow Brick Road
1973 Don't Shoot Me I'm Only the Piano Player
1972 Honky Chateau
1971 Madman Across the Water
1971 Tumbleweed Connection
1970 Elton John
1969 Empty Sky
Goodbye Yellow Brick Road tabs
01Funeral for a Friend (Love Lies Bleeding) tabbass tab
02Candle in the Wind tabbass tab
04Goodbye Yellow Brick Road tabbass tab
14Saturday Night's Alright for Fighting tabbass tab
17Harmony tabbass tab

 

1