Search tabs:
Browse artists: 0-9 | A | B | C | D | E | F | G | H | I | J | K | L | M | N | O | P | Q | R | S | T | U | V | W | X | Y | Z
/ Everlast / Whitey Ford Sings the Blues (1998) / Ends bass tab

Everlast
Ends

This is a correction to the tab you have posted for this song, not that 
anybody who listens to it for 2 seconds couldn't pick it up, but.... 
I believe this song is played totally in G/C during the verse, with a 
C F D# transition during the chorus. I think the person who posted is 
thinking of another song. 


G--------------------------------------------------------------------------------- 
D---------------------------------------------------------------------------------
A----------------------------------------66--------------------------------------- 
E---3---3---0h3 0h3---3p0h1----1--1p0----------0h6--0---3-----3 0h3 0h3 --------- 
                 
and repeat 


verse is 
G-------------------------------------------------------------------------------- 
D-------------------------------------------------------------------------------- 
A----------------------------1/3 0h3 0h3-------3--------------------------------- 
E-----3------0h3 0h3 ---------------------------------0h3-----0h3 0h3------------


This is the basic song, there is a slight walk in C about the 3rd or 5th
 verse in, try a basic low blues walk funk speed but don't hit the G until 
you come back to it for the song (unless of course going straight back to C), 
and you'll be okay. Lots of hammer on feel for smoothness. 
Hope this helps, don't usually post tabs but this really disturbed me...... 
: P


Everlast albums
2004 White Trash Beautiful
2000 Eat at Whitey's
1998 Whitey Ford Sings the Blues
Whitey Ford Sings the Blues tabs
03Ends tabbass tab
04What It's Like tabbass tab
05Get Down tabbass tab
08Hot To Death tabbass tab
12Today (Watch Me Shine) tabbass tab
16The Letter tabbass tab
177 Years tabbass tab

 

1