Search tabs:
Browse artists: 0-9 | A | B | C | D | E | F | G | H | I | J | K | L | M | N | O | P | Q | R | S | T | U | V | W | X | Y | Z
/ Fear Factory / Demanufacture (1995) / Flashpoint bass tab

Flashpoint 
		      	     by Fear Factory
		   	   ALBUM: Demanufacture


Easy as hell song, but it kicks ass. Tune to drop D.

MAIN RIFF. Keep the speed up!
G|---------------------|
d|---------------------|
A|---------------------|
D|--00-0-6--00-0-6-6---|

"Lies sink in..."
|--------------------------|
|--------------------------|
|--------------------------|
|-1-1-1-1-11-1-1-1-1-1-11--|

"one last spark of dishonesty"
|-------------------------------|
|-------------------------------|
|-------------------------------|
|-0-0-0-0-00-0-0-0-0-0-00-0-1-3-|

"and that will be the death of me!"
|----------------------------------|
|----------------------------------|
|----------------------------------|
|-0-0-0-0-00-0-0-0-0-0-0-1-3-1-3-4-|

Before clean vocals.
|---------------------------------------------|
|---------------------------------------------|
|---------------------------------------------|
|-6----8-5----8-4----8-3-6-8----10-9--8-8-7-6-|

During clean vocals-BASS AND KEYBOARDS ONLY!!!
|---------------------------------------------------------------------------
|---------------------------------------------------------------------------
|---------------------------------------------------------------------------
|-6-66-6-66-6-66-6-66-5-55-5-55-5-55-5-55-4-44-4-44-4-44-4-44-3-33-3-33-3/5-

continuation of above riff
--------------------------------------------------------|
--------------------------------------------------------|
--------------------------------------------------------|
-55-5/6-66-10-1010-10-1010-10-1010-9-99-9-99-8-88-8-876-|

End song w/2 blunt open D strikes. Thats it.
If you are playing this line for a band you MUST keep your time perfect,
and in time with the drums. One mistake makes it so that you may fall
behind and not catch up. Its not too fast, but you have to keep the GROOVE =)
thanx!-jp   <metalboy@mindspring.com>            

"my mind is mine, no one else's"- Chris Barnes


Fear Factory albums
2004 Archetype
2002 Concrete
2001 Digimortal
1998 Obsolete
1995 Demanufacture
1992 Soul of a New Machine
Demanufacture tabs
01Demanufacture tabbass tab
02Self Bias Resistor tabbass tab
03Zero Signal tabbass tab
04Replica tabbass tab
05New Breed tabbass tab
06Dog Day Sunrise tabbass tab
07Body Hammer tabbass tab
08Flashpoint tabbass tab
09H-K (Hunter-Killer) tabbass tab
10Pisschrist tabbass tab
11Therapy For Pain tabbass tab

 

1