Search tabs:
Browse artists: 0-9 | A | B | C | D | E | F | G | H | I | J | K | L | M | N | O | P | Q | R | S | T | U | V | W | X | Y | Z
/ Fear Factory / Demanufacture (1995) / Pisschrist bass tab

-Fear Factory-
 Pisschrist


BEADGB standard tuning

G:------------------------
D: -----------------------
A: -----------------------
E: -----------------------
B: ---444444444444444-----     x4

A: -----------------------------------
E: ----------------------5----5-----5-     (make your own variations at
B: 4444444444444--4--444--444--4------         end of these 2 riffs)


A: ----------------------------------------
E: ---------3--------3--------3---------3-5
B: -3333333--3333333--3333333--3333333-----


E: -5~/----9~/----3~/----7/~
B: -------------------------

E: -22222222222-2-0--1-2


There are three different riffs that can fit into the next part. pick your own

Choices:

A: -5~-----4~-----2~------------------:
E: --------------------------2~-------:

D: -----------------2~---------
A: 5~------4~----------------2~      ******


D: -----------------2~-------4~
A: -5~------4~-----------------


Fear Factory albums
2004 Archetype
2002 Concrete
2001 Digimortal
1998 Obsolete
1995 Demanufacture
1992 Soul of a New Machine
Demanufacture tabs
01Demanufacture tabbass tab
02Self Bias Resistor tabbass tab
03Zero Signal tabbass tab
04Replica tabbass tab
05New Breed tabbass tab
06Dog Day Sunrise tabbass tab
07Body Hammer tabbass tab
08Flashpoint tabbass tab
09H-K (Hunter-Killer) tabbass tab
10Pisschrist tabbass tab
11Therapy For Pain tabbass tab

 

1