Search tabs:
Browse artists: 0-9 | A | B | C | D | E | F | G | H | I | J | K | L | M | N | O | P | Q | R | S | T | U | V | W | X | Y | Z
/ Fear Factory / Demanufacture (1995) / Zero Signal bass tab

Band: Fear Factory
Song: Zero Signal
Album: Demanufacture
Bassist: Christian Olde Wolbers
Tuning: Standard 5-String (BEADG)

~ = let ring

please tell me if ive made a mistake

Riff A: (Clean)
Follows the snare
G|------------------|
D|------------------|
A|------------------|
E|------------------|
B|--0~--0~--0~--0~--|

Synth Part:
G|----------------------------------|
D|----------------------------------|
A|--9~----------7~--9~--7~--6~--7~--|
E|--7~--9~--7~--5~--7~--5~--4~--5~--|
B|------7~--5~----------------------|

Riff B: (Clean)
G|-------------------------------------------------------|
D|-------------------------------------------------------|
A|-------------------------------------------------------|
E|-------------------------------------------------------|
B|-11101110-0-0-0-11101110-0-0-0-11101110-0-0-0-11101110-|

Riff C: (Clean)
G|---------------------------------|
D|---------------------------------|
A|---------------------------------|
E|---------------------------------|
B|-555-555-555-555-555-555-555-555-|

Riff D: (Clean)
G|------------------------------------------------------------|
D|------------------------------------------------------------|
A|------------------------------------------------------------|
E|------------------------------------------------------------|
B|-011111-1-1-1-5--011111-1-1-1-5--011111-1-1-1-5--0111101111-|

Riff E: (Clean)
"I am down on my knees..."
G|------------------------------|
D|------------------------------|
A|------------------------------|
E|-7~------00000000005555555555-|
B|-----7~-----------------------|

G|------------------|
D|------------------|
A|------------------|
E|--7~--5~--4~--5~--|
B|------------------|

Riff F: (Distortion)
Follow drum
G|----------------------------------------|
D|----------------------------------------|
A|----------------------------------------|
E|----------------------------------------|
B|-4-4--4-4--4-4--4-4--3-3--3-3--3-3--3-3-|

G|----------------------------------|
D|----------------------------------|
A|----------------------------------|
E|----------------------------------|
B|-4-4-4-4-4-4-4-4-4444444444444444-|

Riff H: (Distortion)
G|-------------------------------------|
D|-------------------------------------|
A|-------------------------------------|
E|-------------------------------------|
B|-4-4-77777-4-66666-4-55555-4-4-5-4-4-|

G|-----------------------------------|
D|-----------------------------------|
A|-----------------------------------|
E|-----------------------------------|
B|-3-66666-3-55555-3-44444-3-3-4-3-3-|

Riff I: (Clean)
G|---------------------|
D|---------------------|
A|---------------------|
E|---------------------|
B|-4~--3~--4~--0~--2~--|

Riff J: (Distortion)
G|---------------------------------------------------------------|
D|---------------------------------------------------------------|
A|---------------------------------------------------------------|
E|-----6-----6---6-----6-66666666-----5-----5---5-----5-55555555-|
B|-4-4---4-4---4---4-4------------3-3---3-3---3---3-3------------|

G|---------------------------------------------------------------|
D|---------------------------------------------------------------|
A|---------------------------------------------------------------|
E|-----6-----6---6-----6-66666666-----2-----2---4-----4-44444444-|
B|-4-4---4-4---4---4-4------------0-0---0-0---2---2-2------------|

G|---------------------------------------------------------------|
D|---------------------------------------------------------------|
A|---------------------------------------------------------------|
E|-----6-----6---6-----6-66666666-----5-----5---5-----5-55555555-|
B|-4-4---4-4---4---4-4------------3-3---3-3---3---3-3------------|

G|-----------------------------------------|
D|-----------------------------------------|
A|-----------------------------------------|
E|-----6-----6---6-----6-66666666----------|
B|-4-4---4-4---4---4-4-------------0~--2~--|

Riff K: (Clean)
"I am lost, I am so numb..."
G|---------------------------------|
D|---------------------------------|
A|---------------------------------|
E|-7~----------5~--7~--5~--4~--5~--|
B|-----7~--5~----------------------|

Keyboard Part: (Clean)
G|--------------------------------------------------------------------|
D|-----------------------------------------------------19--21---------|
A|-------------19--21--19--18--19--21----------19--21--17--19--23-----|
E|-14--21--19--17--19--17--16--17--19--21--19--17--19----------21--7~-|
B|-12--19--17--------------------------19--17----------------------0~-|


Structure:
24 seconds of synth
A 1x
Pause of synth part 2x
B 4x
C 1x
D 2x
Pause or play synth part 1x
D 2x
E 2x
F 1x
Pause for guitar, come in with the double bass
H 2x
I 1x
J 1x
Guitar
D 4x
E 4x
K 4x
Keyboard Outro


Fear Factory albums
2004 Archetype
2002 Concrete
2001 Digimortal
1998 Obsolete
1995 Demanufacture
1992 Soul of a New Machine
Demanufacture tabs
01Demanufacture tabbass tab
02Self Bias Resistor tabbass tab
03Zero Signal tabbass tab
04Replica tabbass tab
05New Breed tabbass tab
06Dog Day Sunrise tabbass tab
07Body Hammer tabbass tab
08Flashpoint tabbass tab
09H-K (Hunter-Killer) tabbass tab
10Pisschrist tabbass tab
11Therapy For Pain tabbass tab

 

1