Search tabs:
Browse artists: 0-9 | A | B | C | D | E | F | G | H | I | J | K | L | M | N | O | P | Q | R | S | T | U | V | W | X | Y | Z
/ Fuel / Natural Selection (2003) / Falls on Me bass tab

Fuel - Falls On Me

Intro - No Bass

Chorus: C G A   F

        G --------    -----
        D -3------    -----
        A -------- 3x --5--
        E ----6---    -----

Verse: No Bass

Bridge: G A G A  :  G A F  :  E E

Outro:             3x
        G ------------------    -----
        D ------------------    -----
        A -8---------------- 3x --5--
        E ---X-12-10-0-12-X-    -----

                   3x
        G -----    --------
        D -3-2-    --------
        A ----- 3x --5~~~--
        E -----    --------


Fuel albums
2003 Natural Selection
2000 Something Like Human
1998 Sunburn
Natural Selection tabs
01Quarter tabbass tab
02Down Inside of You tabbass tab
03Million Miles tabbass tab
04Falls on Me tabbass tab
05These Things tabbass tab
06Won't Back Down tabbass tab
07Running Away tabbass tab
08Most of All tabbass tab
09Getting Thru? tabbass tab
10Die Like This tabbass tab
11Luck tabbass tab
12Days With You tabbass tab

 

1