Search tabs:
Browse artists: 0-9 | A | B | C | D | E | F | G | H | I | J | K | L | M | N | O | P | Q | R | S | T | U | V | W | X | Y | Z
/ Fuel / Sunburn (1998) / Bittersweet bass tab

bass for bittersweet
by fuel
tabbed by matt bliesner

intro

   C           D             E            C
G|------------------------------------------|
D|------------------------------------------|
A|-3-3-0-3-0-3-5-5-0-5-0-5-0-7-7-7-7-9-10---|
E|----------------------------------------8-|
   C           B           A
G|-------------------------------------|
D|-------------------------------------|
A|-3-3-0-3-0-3-2-2-2-2-2-2-------------|
E|-------------------------5-5-5-5-5-5-|

CHORUS
    E       G C       D
G|----------------------------------|
D|----------------------------------|
A|--------------3-3-3-3h5-3-3-3h5p3-|
E|--0-0-0-0-3-3---------------------|

VERSE

G|------------------|
D|------------------|
A|---------3-3-3-3--|
E|-0-0-3-3----------|

COOL RIFF

G|------------|
D|------------|
A|-0-0-1-1-2--|
E|------------|

thats about it. like i have said before fuel rock
any requests, love letters or spam send to
tsepesh18@hotmail.com or add me to your msn
check out my bands homepage
http://hyp3r-active.20m.com sign the guestbook
rock on
matt


Fuel albums
2003 Natural Selection
2000 Something Like Human
1998 Sunburn
Sunburn tabs
01(Untitled) tabbass tab
02Bittersweet tabbass tab
03Shimmer tabbass tab
04Jesus or a Gun tabbass tab
05Sunburn tabbass tab
06New Thing tabbass tab
07It's Come to This tabbass tab
08Song For You tabbass tab
09Mary Pretends tabbass tab
10Ozone tabbass tab
11Hideaway tabbass tab

 

1