Search tabs:
Browse artists: 0-9 | A | B | C | D | E | F | G | H | I | J | K | L | M | N | O | P | Q | R | S | T | U | V | W | X | Y | Z
/ Guns N' Roses / Appetite For Destruction (1987) / Night Train bass tab

Night Train
tuning f#  C#  G#  D#
 Dane R

F#||------------------|-------------------|-------------------|
C#||------------------|-------------------|--7----------------|
G#||------------------|-------------------|-------------------|
D#||------------------|--5----------------|-------------------|



------------------|------------------|------------------|---------------------|
------------------|------------------|------------------|---------------------|
------------------|------------------|------------------|---------------------|
------------------|------------------|------------------|------------0--5--3--|



--------------------|---------------------|--------------------|
--------------------|---------------------|--------------------|
--------------------|---------------------|--------------------|
----3--3------------|------------0--3--5--|----5--5------------|



---------------------|--------------------|---------------------|
------------4--5-----|--------------------|---------------------|
---------------------|--------------------|---------------------|
------------------5--|----5--5------------|------------0--3--1--|



--------------------|---------------------|--------------------|
--------------------|---------------------|--------------------|
--------------------|---------------------|--------------------|
----1--1------------|------------0--1--3--|----3--3------------|



---------------------|---------------------|-------------------------|
---------------------|------------------7--|----5--------------------|
---------------------|---------------------|-------7--6--5-----5-----|
------------0--3--5--|----5--5-------------|----------------8-----5--|



------------------------|------------------------|------------------------|
------------------------|------------------------|------------------------|
------------------------|---------------------3--|------------------------|
----5----5--5--0--3--5--|----5----5--5--0--3-----|----5----5--5--0--3--5--|



------------------------|------------------------|------------------------|
------------------------|------------------------|------------------------|
------------------------|------------------------|---------------------3--|
----5----5--5--5--0--3--|----5----5--5--0--3--5--|----5----5--5--0--3-----|



------------------------|-------------------------|------------------------|
---------------------7--|----5--------------------|------------------------|
------------------------|-------7--6--5-----5-----|------------------------|
----5----5--5--0--3-----|----------------8-----5--|----5----5--5--0--3--5--|



------------------------|------------------------|------------------------|
------------------------|------------------------|------------------------|
---------------------3--|------------------------|------------------------|
----5----5--5--0--3-----|----5----5--5--0--3--5--|----5----5--5--5--0--3--|



------------------------|------------------------|------------------|
------------------------|------------------------|------------------|
------------------------|---------------------5--|------------------|
----5----5--5--0--3--5--|----5----5--5--0--3-----|------------------|



------------------|------------------|----------------------|
------------------|------------------|----------------------|
------------------|------------------|----------3-----------|
------------------|------------------|-------------5--3--5--|



-------------------------|-------------------------|------------------------|
----------------------7--|----7--7--7--7--5--------|------------------------|
-------------------------|-------------------7-----|------------------------|
----5--5--5--5--5--5-----|----------------------5--|----5----5--5--0--3--5--|



------------------------|------------------------|------------------------|
------------------------|------------------------|------------------------|
---------------------3--|------------------------|------------------------|
----5----5--5--0--3-----|----5----5--5--0--3--5--|----5----5--5--5--0--3--|



------------------------|------------------------|------------------|
------------------------|------------------------|------------------|
------------------------|---------------------5--|------------------|
----5----5--5--0--3--5--|----5----5--5--0--3-----|------------------|



------------------|------------------|------------------|------------------|
------------------|------------------|------------------|------------------|
------------------|------------------|------------------|------------------|
------------------|------------------|------------------|------------------|



---------------------|--------------------|----------------------|
------------2--3--5--|----5--5------------|----------5--3--------|
---------------------|--------------------|----------------5-----|
---------------------|--------------------|-------------------3--|



-------------------------|--------------------------|------------------------|
-------------------------|--------------------------|------------------------|
-------------------------|--------------------------|------------------------|
----3--3--3--3--3--3--3--|--3--3--3--3--3--3--3--5--|----5----5--5--0--3--5--|



------------------------|------------------------|------------------------|
------------------------|------------------------|------------------------|
------------------------|------------------------|------------------------|
----5----5--5--0--3--5--|----5----5--5--0--3--5--|----5----5--5--0--3--5--|



------------------------|------------------------|------------------------|
------------------------|------------------------|------------------------|
------------------------|------------------------|------------------------|
----5----5--5--0--3--5--|----5----5--5--0--3--1--|----1----1--1--0--1--3--|



------------------------|------------------------|------------------------|
------------------------|------------------------|------------------------|
------------------------|------------------------|------------------------|
----3----3--3--0--3--5--|----5----5--5--0--3--5--|----5----5--5--0--3--5--|



------------------------|------------------------|------------------------|
------------------------|------------------------|------------------------|
------------------------|------------------------|------------------------|
----5----5--5--0--3--5--|----5----5--5--0--3--5--|----5----5--5--0--3--5--|



------------------------|------------------|-------------------|
------------------------|------------------|-------------------|
---------------------5--|------------------|----------------2--|
----5----5--5--0--3-----|------------------|-------------------|



-----------------------|------------------------|-----------------------|
-----------------------|------------------------|-----------------------|
----0--2----0--2----2--|----0--2----2-----------|-----------------------|
-----------------------|---------------0--1--2--|----0--2----0--2----2--|



-----------------------|-----------------------|------------------------|
-----------------------|-----------------------|------------------------|
--------------------2--|----0--2----0--2----2--|----0--2----2-----------|
----0--2----0--2-------|-----------------------|---------------0--1--2--|



-----------------------|----------------------|--------------------------|
-----------------------|----------------------|--------------------------|
-----------------------|----------------------|--5--5--5--5--5--5--5--5--|
----0--2----0--2----2--|----2----3----4----5--|--------------------------|



-------------------------|-------------------------|-------------------------|
-------------------------|-------------------------|-------------------------|
----5--5--5--5--5--5-----|-------------------------|----------------------5--|
----------------------2--|----2--2--2--2--2--2--2--|----2--2--2--2--2--2-----|



-------------------------|-------------------------|-------------------------|
-------------------------|-------------------------|-------------------------|
----5--5--5--5--5--5--5--|----5--5--5--5--5--5-----|-------------------------|
-------------------------|----------------------2--|----2--2--2--2--2--2--2--|



-------------------------|-------------------------|-------------------------|
-------------------------|-------------------------|-------------------------|
----------------------5--|----5--5--5--5--5--5--5--|----5--5--5--5--5--5-----|
----2--2--2--2--2--2-----|-------------------------|----------------------2--|



-------------------------|-------------------------|-------------------------|
-------------------------|-------------------------|-------------------------|
-------------------------|----------------------5--|----5--5--5--5--5--5--5--|
----2--2--2--2--2--2--2--|----2--2--2--2--2--2-----|-------------------------|



-------------------------|-------------------------|-------------------------|
-------------------------|-------------------------|-------------------------|
----5--5--5--5-----------|-------------------------|-------------------------|
----------------0--1--2--|----2--2--2--2--2--1--0--|----0--0--0--0--0--1--2--|



-------------------------|-------------------------|-------------------------|
-------------------------|-------------------------|-------------------------|
-------------------------|-------------------------|-------------------------|
----2--2--2--2--2--1--0--|----0--0--0--0--0--1--2--|----2--2--2--2--2--1--0--|



-------------------------|--------------------------|--------------------------|
-------------------------|--------------------------|--------------------------|
-------------------------|--5--5--5--5--5--5--5--5--|--5--5--5--5--5--3--0--0--|
----0--0--0--0--0--1--2--|--------------------------|--------------------------|



--------------------|--------------------|--------------------|
--------------------|--------------------|--------------------|
------0----------0--|------0-------------|--------------------|
--------------------|-----------------1--|------1----------1--|



--------------------|--------------------|--------------------|
--------------------|--------------------|--------------------|
--------------------|--------------------|--------------------|
------1----------3--|------3----------3--|------3----------5--|



--------------------|----------------------|--------------------------|
--------------------|----------------------|--------------------------|
-----------------3--|----------3-----------|--0--0--3--0--3--0-----0--|
------5-------------|-------------0--3--5--|--------------------3-----|



-------------------------|-------------------------|-------------------------|
-------------------------|-------------------------|-------------------------|
----0--3--0--3--0--------|-------3--2--3--2--0-----|-------3--2--3--2--0-----|
-------------------3--1--|----1-----------------1--|----1-----------------3--|



-------------------------|-------------------------|-------------------------|
-------------------------|-------------------------|-------------------------|
-------3--2--3--2--0-----|-------3--2--3--2--------|----0--3--0--3--0-----0--|
----3-----------------3--|----3--------------3--3--|-------------------3-----|



-------------------------|-------------------------|-------------------------|
-------------------------|-------------------------|-------------------------|
----0--3--0--3--0-----0--|----0--3--0--3--0-----0--|----0--3--0--3--0--------|
-------------------3-----|-------------------3-----|-------------------3--1--|



-------------------------|-------------------------|-------------------------|
-------------------------|-------------------------|-------------------------|
-------3--2--3--2--0-----|-------3--2--3--2--0-----|-------3--2--3--2--0-----|
----1-----------------1--|----1-----------------3--|----3-----------------3--|



-------------------------|-------------------------|-------------------------|
-------------------------|-------------------------|-------------------------|
-------3--2--3--2-----0--|----0--3--0--3--0-----0--|----0--3--0--3--0-----0--|
----3--------------3-----|-------------------3-----|-------------------3-----|



-------------------------|-------------------------|-------------------------|
-------------------------|-------------------------|-------------------------|
----0--3--0--3--0-----0--|----0--3--0--3--0--------|-------3--2--3--2--0-----|
-------------------3-----|-------------------3--1--|----1-----------------1--|



-------------------------|-------------------------|-------------------------|
-------------------------|-------------------------|-------------------------|
-------3--2--3--2--0-----|-------3--2--3--2--0-----|-------3--2--3--2-----0--|
----1-----------------3--|----3-----------------3--|----3--------------3-----|



-------------------------|-------------------------|-------------------------|
----------2--------------|-------------------------|-------------------------|
----0--3--0--3--0-----0--|----0--3--0--3--0-----0--|----0--3--0--3--0-----0--|
-------------------3-----|-------------------3-----|-------------------3-----|



-------------------------|-------------------------|-------------------------|
-------------------------|-------------------------|-------------------------|
----0--3--0--3--0--------|-------3--2--3--2--0-----|-------3--2--3--2--0-----|
-------------------3--1--|----1-----------------1--|----1-----------------3--|



-------------------------|-------------------------|-------------------------|
-------------------------|-------------------------|-------------------------|
-------3--2--3--2--0-----|-------3--2--3--2-----0--|----0--3--0--3--0-----0--|
----3-----------------3--|----3--------------3-----|-------------------3-----|



-------------------------|-------------------------|-------------------------|
-------------------------|-------------------------|-------------------------|
----0--3--0--3--0-----0--|----0--3--0--3--0-----0--|----0--3--0--3--0--------|
-------------------3-----|-------------------3-----|-------------------3--1--|



-------------------------|-------------------------|-------------------------|
-------------------------|-------------------------|-------------------------|
-------3--2--3--2--0-----|-------3--2--3--2--0-----|-------3--2--3--2--0-----|
----1-----------------1--|----1-----------------3--|----3-----------------3--|



-------------------------|-------------------------|-------------------------|
-------------------------|-------------------------|-------------------------|
-------3--2--3--2-----0--|----0--3--0--3--0-----0--|----0--3--0--3--0-----0--|
----3--------------3-----|-------------------3-----|-------------------3-----|



-------------------------|-------------------------|-------------------------|
-------------------------|-------------------------|-------------------------|
----0--3--0--3--0-----0--|----0--3--0--3--0--------|-------3--2--3--2--0-----|
-------------------3-----|-------------------3--1--|----1-----------------1--|



-------------------------|-------------------------|-------------------------|
-------------------------|-------------------------|-------------------------|
-------3--2--3--2--0-----|-------3--2--3--2--0-----|-------3--2--3--2-----0--|
----1-----------------3--|----3-----------------3--|----3--------------3-----|



-------------------------|-------------------------|------------------|
-------------------------|-------------------------|------------------|
----0--3--0--3--0-----0--|----0--3--0--3--0-----0--|------------------|
-------------------3-----|-------------------3-----|------------------|



------------------|------------------|--------------------||
------------------|------------------|--------------------||
------------------|------------------|--12----------------||
------------------|------------------|--------------------||


Guns N' Roses albums
1999 G N' R Lies
1993 The Spaghetti Incident?
1991 Use Your Illusion Vol. 2
1991 Use Your Illusion Vol. 1
1988 Lies
1987 Appetite For Destruction
Appetite For Destruction tabs
01Welcome To The Jungle tabbass tab
02It's So Easy tabbass tab
03Night Train tabbass tab
04Out Ta Get Me tabbass tab
05Mr. Brownstone tabbass tab
06Paradise City tabbass tab
07My Michelle tabbass tab
08Think About You tabbass tab
09Sweet Child O' Mine tabbass tab
10You're Crazy tabbass tab
11Anything Goes tabbass tab
12Rocket Queen tabbass tab

 

1