Search tabs:
Browse artists: 0-9 | A | B | C | D | E | F | G | H | I | J | K | L | M | N | O | P | Q | R | S | T | U | V | W | X | Y | Z
/ Hawthorne Heights / The Silence in Black and White (2004) / Niki FM bass tab

Hawthorne Heights
The Silence in Black in White
NikiFM

An amazing song, i normally play guitar but there werent any bass tabs for this song so i took care of it

intro
G|--------------------------------|------------------------|
D|--------------------------------|------------------------|
A|--4-6-7-0-2-4~--6-7-0-2---------|---4-------0------------|
E|--------------------------------|--------0---------------|
    verse x3
G|-------------------------------------------------------|
D|-------------------------------------------------------|
A|-4-4-4-4--4-4-4-4---0-0-0-0---0-0-0-0--2/--------------| after last note slide back to the 4
E|-------------------------------------------------------|

 pre chorus "  the silence in..."
G|-----------------|-------------------|
D|-----------------|-------------------|
A|--4-----4--------|--4------0---------|
E|-----5------5----|------0------------|

chorus "right now...im outside..."
G|-------------------------------------------------------|
D|-------------------------------------------------------|
A|-4-4-4-4--4-4-4-4---4------------------0-0-2-2-0-0-2-2-|
E|-----------------------------0-------------------------|
verse x4
G|-------------------------------------------------------|
D|-------------------------------------------------------|
A|-4-4-4-4--4-4-4-4---0-0-0-0---0-0-0-0--2/--------------|
E|-------------------------------------------------------|

pre chorus
G|-----------------|
D|-----------------|
A|--4-----4--------|
E|-----5-----------|

chorus "right now...im outside..." repeat first half
G|-------------------------------------------------------|------------|
D|-------------------------------------------------------|------------|
A|-4-4-4-4--4-4-4-4---4------------------0-0-2-2-0-0-2-2-|--4------0--|
E|-----------------------------0-------------------------|-----0------|

bridge
G|--------------------------------|
D|--------------------------------|
A|--4-6-7-0-2-4~--6-7-0-2---------|
E|--------------------------------|

bridge part 2 x4
G|-------------------------------------------------------------------|
D|-------------------------------------------------------------------|
A|--4-4-----4-4---2-2---0-0-----2-2----------------------------------|
E|-------00------0------0-----0-0-----0-0----------------------------|
outro
G|--------------------------------|
D|--------------------------------|
A|--4-6-7-0-2-4~--6-7-0-2---------|
E|--------------------------------|


Hawthorne Heights albums
2004 The Silence in Black and White
The Silence in Black and White tabs
01Life on Standby tabbass tab
02Dissolve and Decay tabbass tab
03Niki FM tabbass tab
04The Transition tabbass tab
05Blue Burns Orange tabbass tab
06Silver Bullet tabbass tab
07Screenwriting an Apology tabbass tab
08Ohio Is for Lovers tabbass tab
09Wake Up Call tabbass tab
10Sandpaper and Silk tabbass tab
11Speeding Up the Octaves tabbass tab

 

1