Search tabs:
Browse artists: 0-9 | A | B | C | D | E | F | G | H | I | J | K | L | M | N | O | P | Q | R | S | T | U | V | W | X | Y | Z
/ Hawthorne Heights / The Silence in Black and White (2004) / Sandpaper and Silk bass tab

Song: Sandpaper And Silk
Band: Hawthorne Heights
Tabber: 555_Maggot_666

Stardard Tuning (E,A,D,G)

h= Hammer on
p= Pull off
~= Let note ring
/= Slide up (Higher)
\= Slide down (Lower)

Intro
G|----------------|
D|----------------| x2
A|----------------|
E|-555-55555-5555-|

G|----------------------------------|
D|----------------------------------|
A|----------------------------------|
E|-777-77777-7777---777-7777-9~-7h9-|

G|----------------------------------|
D|----------------------------------|
A|----------------------------------|
E|-555-55555-5555---555-55555-55555-|

Verse
G|------------------------------|
D|------------------------------| x2
A|------------------------------|
E|-9~---7-9~--12-11--7~--5-7~-\-|

Pre-Chorus
G|--------|
D|--------|
A|--------|
E|-0-0-0--|

Chorus
G|-------------------------------------------|
D|-------------------------------------------|
A|-------------------------------------------|
E|-555555555555555-777777777777777--0-0-0-9~-|

Verse
G|------------------------------|
D|------------------------------|
A|------------------------------|
E|-9~---7-9~--12-11--7~--5-7~-\-|

Pre-Chorus
G|----------|
D|----------|
A|----------|
E|-0-0-0--7-|

Chorus
G|----------------------------------------------------------|
D|----------------------------------------------------------|
A|----------------------------------------------------------|
E|-555555555555555-777777777777777--99999999999-99999999999-|

G|----------------------------------------|
D|----------------------------------------|
A|----------------------------------------|
E|-555555555555555-777777777777777--0-0-0-|

Bridge
G|------------------------------------------------------------|
D|------------------------------------------------------------|
A|--------------0~-------------0~--------------------------0~-|
E|-12-11h12p11-----9~--12\11------12-11-12/14--9~---12\11-----|

G|-------------------------------------|
D|-------------------------------------|
A|-------------------------------------|
E|-9----99----9----99----9----99----9~-|

Chorus
G|----------------------------------------------------------|
D|----------------------------------------------------------| x2
A|----------------------------------------------------------|
E|-555555555555555-777777777777777--99999999999-99999999999-|

G|------------------------------------------------------------|
D|------------------------------------------------------------|
A|------------------------------------------------------------|
E|-555555555555555-777777777777777--0-0-0-9--0-0-0-9--0-0-0-5~|

ENJOY!! :)


Hawthorne Heights albums
2004 The Silence in Black and White
The Silence in Black and White tabs
01Life on Standby tabbass tab
02Dissolve and Decay tabbass tab
03Niki FM tabbass tab
04The Transition tabbass tab
05Blue Burns Orange tabbass tab
06Silver Bullet tabbass tab
07Screenwriting an Apology tabbass tab
08Ohio Is for Lovers tabbass tab
09Wake Up Call tabbass tab
10Sandpaper and Silk tabbass tab
11Speeding Up the Octaves tabbass tab

 

1