Search tabs:
Browse artists: 0-9 | A | B | C | D | E | F | G | H | I | J | K | L | M | N | O | P | Q | R | S | T | U | V | W | X | Y | Z
/ Hawthorne Heights / The Silence in Black and White (2004) / Screenwriting an Apology bass tab

Artist: Hawthorne Heights
Song: Screenwriting an Apology
Tabber: decimalsANDdllrs
Note: This is my first tab ever.  No one had tabbed this song
and I wanted to play it so bad I had to sit down and do it.
Please give me suggestions/corrections clouer2@uiuc.edu




  INTRO (:10)  She called last night.....
G |----------------------------
D |-----------------------------
A |-6----10-8-6-2-------------- x3
E |----------------------------

  Post-break (:45)               PRECHORUS A
G |--------------||------------------------------------
D |---------------||------------------------------------
A |2222-2222-2222-||-6666-6666-6666------2222-2222-2222- x2
E |--------------||------------------------------------

   PRECHORUS B (:59)
G |------------------------
D |-------------------------
A |-6--2---124------------- x2
E |------------------------

   VERSE (1:11)
G |--------------------------------------------------
D |---------------------------------------------------
A |66666-66666-44444-44444-22222-22222--------------- x2
E |--------------------------------------------------

   PRECHORUS B (1:30)
G |------------------------
D |-------------------------
A |-6--2---1-2-4----------- x2
E |------------------------

   CHORUS (1:42)
G |------------------------
D |-------------------------
A |-66666666-2222-4444----- x2
E |------------------------

   VERSE (1:54)
G |--------------------------------------
D |---------------------------------------
A |66666-66666-44444-44444-22222-22222--- x1
E |--------------------------------------

   VERSE (Continued)
G |--------------------------------------------------
D |---------------------------------------------------
A |66666-66666-44444-44444-22222--1-2-4-------------- x1
E |--------------------------------------------------

   BREAK (2:13) (dont play)

   PRECHORUS A (2:38) x4

   PRECHORUS B (3:01) x1

   CHORUS (3:07) x2

   CHORUS VARIATION (3rd Time Through)
G |------------------------
D |-------------------------
A |-6666666-10-2222-4444--- x1
E |------------------------

  CLOSING
G |------------------------
D |-------------------------
A |-6-6-6-6--6~~~~~~------- x1
E |------------------------


Hawthorne Heights albums
2004 The Silence in Black and White
The Silence in Black and White tabs
01Life on Standby tabbass tab
02Dissolve and Decay tabbass tab
03Niki FM tabbass tab
04The Transition tabbass tab
05Blue Burns Orange tabbass tab
06Silver Bullet tabbass tab
07Screenwriting an Apology tabbass tab
08Ohio Is for Lovers tabbass tab
09Wake Up Call tabbass tab
10Sandpaper and Silk tabbass tab
11Speeding Up the Octaves tabbass tab

 

1