Search tabs:
Browse artists: 0-9 | A | B | C | D | E | F | G | H | I | J | K | L | M | N | O | P | Q | R | S | T | U | V | W | X | Y | Z
/ Hot Water Music / Forever and Counting (1997) / Manual bass tab

* : hold that note
~ : bend that note
h,p : hammer on, pull off
/,\ : slide up, slide down

start at :13
G:--------------------------------------------------------------|-----------------|
D:--------------------------------------------------------------|-----------------|
A:-444444-------------7/9-99-7-7-7h9-9-7------------------------|-4-4~*-4~*-4-4~*-|
E:--------555555-0-00--------------------5555-7h97h9-9-12121212-|-----------------|

:45
G:------------------------------------------------------------------------|
D:------------------------------------------------------------------------|
A:-4444444444444444-----------------------------------54--54--54--54--777-|
E:------------------0000000000000000-2222222222222222---5---5---5---5-----|

1:11 - BREAK, NO BASS

1:23
G:--------------------------------------------------------------|-----------------|
D:--------------------------------------------------------------|-----------------|
A:-444444-------------7/9-99-7-7-7h9-9-7------------------------|-4-4~*-4~*-4-4~*-|
E:--------555555-0-00--------------------5555-7h97h9-9-12121212-|-----------------|

1:36
G:------------------------------------------------------------------------|
D:------------------------------------------------------------------------|
A:-4444444444444444-----------------------------------54--54--54--54--777-|
E:------------------0000000000000000-2222222222222222---5---5---5---5-----|

2:01
G:--------------------------------------------------------------------------|
D:--------------------------------------------------------------------------|
A:--------------------------------------------------------------------------|
E:-22-222-22-00-000-00-77-777-77-55-555-55-99-999-99-55-555-55-22-222-22-0*-|

2:26
G:------------------------------------------------------------------------|
D:------------------------------------------------------------------------|
A:-4444444444444444-----------------------------------54--54--54--54--777-|
E:------------------0000000000000000-2222222222222222---5---5---5---5-----|

2:52 repeat until
G:----------------------------------------------------------------|
D:----------------------------------------------------------------|
A:----------------------------------------------------------------|
E:-4*-7*-7h9-0*--4h5-4*-7*-7h9-0*--4*-7*-7h9-0*--4h5-4*-7*-7h9-0*-|

    some improv like :
    G:-----------------------------------------|
    D:-----------------------------------------|
    A:-----------7-----8h7-----8h7-----8h7-----|
    E:-4*-7*-7h9---7h9-----7h9-----7h9-----7h9-|


Hot Water Music albums
2004 The New What Next
2004 Never Ender
2002 Caution
2001 A Flight and a Crash
1999 Moonpies for Misfits
1999 No Division
1998 Fuel for the Hate Game
1997 Forever and Counting
Forever and Counting tabs
03Just Don't Say You Lost It tabbass tab
04Position tabbass tab
06Manual tabbass tab
07Minno tabbass tab

 

1