Search tabs:
Browse artists: 0-9 | A | B | C | D | E | F | G | H | I | J | K | L | M | N | O | P | Q | R | S | T | U | V | W | X | Y | Z
/ Hot Water Music / Forever and Counting (1997) / Minno bass tab

Tabbed by Ste Smarja

Standard Tuning

*=let ring, s=slide, h=hammer-on
                                                                                                                 The start bit is played on guitar but can be played well on bass.

G--9-9-9-9-9-9-9-9-9-9-9-9-9-9-9-9-9-9-9-9-9-9-9-9-9-9-9-9---------
D-7-7-6-6-0-0-0-0-7-7-8-8-0-0-0-0-7-7-6-6-5-5-5-5-----------3-3-4-4
A--------------------------------------------------9-9-9-9---------
E------------------------------------------------------------------


G------------------------------------------------------------------------------
D-0-5-7*---0-5-7-7h9p0---0-5---------------------------------------------------
A----------------------------------0-0*-7-5-0*--7-5-500-00-7-5-500-------------
E--------------------------------------------------------------------------000*-


G--------------------------------------------------------------------------------
D--------------------------------------------------------------------------------
A-7-5-500-00-7-5-500---7-5-500-000*--7-5-0-00--7-5-5h6-0-------------------------
E--------------------------00---------------------------------------------------


G-------------------------------------------------------------------------------
D--------------------------------------------------------------------------------
A-7-5-500-00*--7-5-0--7-5-5h6-0--7-5-500-00*---...
E----------------------------------------------...


Hot Water Music albums
2004 The New What Next
2004 Never Ender
2002 Caution
2001 A Flight and a Crash
1999 Moonpies for Misfits
1999 No Division
1998 Fuel for the Hate Game
1997 Forever and Counting
Forever and Counting tabs
03Just Don't Say You Lost It tabbass tab
04Position tabbass tab
06Manual tabbass tab
07Minno tabbass tab

 

1