Search tabs:
Browse artists: 0-9 | A | B | C | D | E | F | G | H | I | J | K | L | M | N | O | P | Q | R | S | T | U | V | W | X | Y | Z
/ In Flames / Jester Race (1995) / December Flower bass tab

Just Tune Down so song could match up to wat your playin

D#||------||-----------------------------------|----------------------|
A#||------||*----------------------------------|----------------------|
F ||------||*----------------------------------|----------------------|
C ||------||---0-0-0-0-0-0-0-0-0-0-0-0-0-0-0-0-|--3----3----3----3----|


                                                            
----------------------------------|-----------------------||
--0-0-0-0-0-0-0-0-0-0-0-0-0-0-0-0-|----------------------*||
----------------------------------|--0---------5----4----*||
----------------------------------|-------0---------------||


                                                                           
-----------------------||-----------------------||--------------4--5------|
-------2--------------*||----------------------*||------------------------|
--0---------5----4----*||--0---------5----4----*||--0--0--0--0--2--3------|
-----------------------||-------0---------------||------------------------|


                                                              
------------------------------|------------------------------|
------------------------------|------------------------------|
------------------------------|------------------------------|
--0-0--0-0-0--0-0-0--0-0-0--0-|--0-0--0-0-0--0-0-0--0-0-0--0-|


                                                              
------------------------------|------------------------------|
------------------------------|------------------------------|
------------------------------|------------------------------|
--2-2--2-2-2--2-2-2--2-2-2--2-|--0-0--0-0-0--0-0-0--0-0-0--0-|


                                                              
------------------------------|------------------------------|
------------------------------|------------------------------|
------------------------------|------------------------------|
--0-0--0-0-0--0-0-0--0-0-0--0-|--0-0--0-0-0--0-0-0--0-0-0--0-|


                                                              
------------------------------|------------------------------|
------------------------------|------------------------------|
------------------------------|------------------------------|
--0-0--0-0-0--0-0-0--0-0-0--0-|--0-0--0-0-0--0-0-0--0-0-0--0-|


                                                                           
------------------------|------------------------|------------------------|
------------------------|------------------------|-------------1----1--2--|
--7----7-----5----5-----|--4----4-----3----3-----|--2----2-----2----2--2--|
----------0----------0--|----------0----------0--|----------0----------0--|


                                                                            
------|------|------------------------------|------------------------------|
------|------|------------------------------|------------------------------|
------|------|------------------------------|------------------------------|
------|------|--0-0--0-0-0--0-0-0--0-0-0--0-|--0-0--0-0-0--0-0-0--0-0-0--0-|


                                                                      
-------------------------------|------|------------------------------|
-------------------------------|------|------------------------------|
-------------------------------|------|------------------------------|
--2-2--2-2-2--2-2-2--2-2-2-2-2-|------|--0-0--0-0-0--0-0-0--0-0-0--0-|


                                                                      
------------------------------|-------------------------------|------|
------------------------------|-------------------------------|------|
------------------------------|-------------------------------|------|
--0-0--0-0-0--0-0-0--0-0-0--0-|--2-2--2-2-2--2-2-2--2-2-2-2-2-|------|


                                                              
------------------------------|------------------------------|
------------------------------|------------------------------|
------------------------------|------------------------------|
--0-0--0-0-0--0-0-0--0-0-0--0-|--0-0--0-0-0--0-0-0--0-0-0--0-|


                                                                      
-------------------------------|------|------------------------------|
-------------------------------|------|------------------------------|
-------------------------------|------|------------------------------|
--2-2--2-2-2--2-2-2--2-2-2-2-2-|------|--0-0--0-0-0--0-0-0--0-0-0--0-|


                                                                  
------------------------------|----------------------------------|
------------------------------|----------------------------------|
------------------------------|----------------------------------|
--0-0--0-0-0--0-0-0--0-0-0--0-|--2-2-2-2-2-2-2-2-2-2-2-2-2-2-2-2-|


                                                                       
----------------------|----------------------|------------------------|
-------0----4---------|-------0----4---------|------------------------|
--3--------------5----|--3--------------5----|--7----7-----5----5-----|
----------------------|----------------------|----------0----------0--|


                                                                
------------------------|------------------------|------|------|
------------------------|-------------1----1--2--|------|------|
--4----4-----3----3-----|--2----2-----2----2--2--|------|------|
----------0----------0--|----------0----------0--|------|------|


                                                              
------------------------------|------------------------------|
------------------------------|------------------------------|
------------------------------|------------------------------|
--0-0--0-0-0--0-0-0--0-0-0--0-|--0-0--0-0-0--0-0-0--0-0-0--0-|


                                                              
------------------------------|------------------------------|
--4-4--4-4-4--4-4-4--4-4-4--4-|------------------------------|
------------------------------|--5-5--5-5-5--5-5-5--5-5-5--5-|
------------------------------|------------------------------|


                                                              
------------------------------|------------------------------|
------------------------------|------------------------------|
------------------------------|------------------------------|
--0-0--0-0-0--0-0-0--0-0-0--0-|--0-0--0-0-0--0-0-0--0-0-0--0-|


                                                              
------------------------------|------------------------------|
--4-4--4-4-4--4-4-4--4-4-4--4-|--0-0--0-0-0--0-0-0--0-0-0--0-|
------------------------------|------------------------------|
------------------------------|------------------------------|


                                                                          
------------------------------|------------------------------------------|
------------------------------|------------------------------------------|
------------------------------|------------------------------------------|
--8-8--8-8-8--8-8-8--8-8-8--8-|--10-10--10-10-10--10-10-10--10-10-10--10-|


                                                                                
-----------------------|------------------------|------------------------------|
-----------------------|------------------------|------------------------------|
-----------------------|------------------------|------------------------------|
--0--0------0--0----0--|--0----0--0--0----0--0--|--8-8--8-8-8--8-8-8--8-8-8--8-|


                                                                   
------------------------------------------|-----------------------|
------------------------------------------|-----------------------|
------------------------------------------|-----------------------|
--10-10--10-10-10--10-10-10--10-10-10--10-|--0--0------0--0----0--|


                                                        
------------------------|------------------------------|
------------------------|------------------------------|
------------------------|------------------------------|
--0----0--0--0----0--0--|--8-8--8-8-8--8-8-8--8-8-8--8-|


                                                                   
------------------------------------------|-----------------------|
------------------------------------------|-----------------------|
------------------------------------------|-----------------------|
--10-10--10-10-10--10-10-10--10-10-10--10-|--0--0------0--0----0--|


                                                        
------------------------|------------------------------|
------------------------|------------------------------|
------------------------|------------------------------|
--0----0--0--0----0--0--|--8-8--8-8-8--8-8-8--8-8-8--8-|


                                                                   
------------------------------------------|-----------------------|
------------------------------------------|-----------------------|
------------------------------------------|-----------------------|
--10-10--10-10-10--10-10-10--10-10-10--10-|--0--0------0--0----0--|


                                                
-----------------------|-----------------------|
-----------------------|-----------------------|
-----------------------|-----------------------|
--0--0------0--0----0--|--0--0------0--0----0--|


                                                                                
------12----------------12----------------||-----------------------------------|
---------12----------12----12----------12-||*----------------------------------|
------------12----12----------12----12----||*----------------------------------|
---------------12----------------12-------||---0-0-0-0-0-0-0-0-0-0-0-0-0-0-0-0-|


                                                          
----------------------|----------------------------------|
----------------------|--0-0-0-0-0-0-0-0-0-0-0-0-0-0-0-0-|
----------------------|----------------------------------|
--3----3----3----3----|----------------------------------|


                                                  
-----------------------||--------------4--5------|
----------------------*||------------------------|
--0---------5----4----*||--0--0--0--0--2--3------|
-------0---------------||------------------------|


                                                              
------------------------------|------------------------------|
------------------------------|------------------------------|
------------------------------|------------------------------|
--0-0--0-0-0--0-0-0--0-0-0--0-|--0-0--0-0-0--0-0-0--0-0-0--0-|


                                                                      
-------------------------------|------|------------------------------|
-------------------------------|------|------------------------------|
-------------------------------|------|------------------------------|
--2-2--2-2-2--2-2-2--2-2-2-2-2-|------|--0-0--0-0-0--0-0-0--0-0-0--0-|


                                                               
------------------------------|-------------------------------|
------------------------------|-------------------------------|
------------------------------|-------------------------------|
--0-0--0-0-0--0-0-0--0-0-0--0-|--2-2--2-2-2--2-2-2--2-2-2-2-2-|


                                                      
----------------------|------------------------------|
-------0----4---------|------------------------------|
--3--------------5----|------------------------------|
----------------------|--0-0--0-0-0--0-0-0--0-0-0--0-|


                                                                      
------------------------------|-------------------------------|------|
------------------------------|-------------------------------|------|
------------------------------|-------------------------------|------|
--0-0--0-0-0--0-0-0--0-0-0--0-|--2-2--2-2-2--2-2-2--2-2-2-2-2-|------|


                                                              
------------------------------|------------------------------|
------------------------------|------------------------------|
------------------------------|------------------------------|
--0-0--0-0-0--0-0-0--0-0-0--0-|--0-0--0-0-0--0-0-0--0-0-0--0-|


                                                          
----------------------------------|----------------------|
----------------------------------|-------0----4---------|
----------------------------------|--3--------------5----|
--2-2-2-2-2-2-2-2-2-2-2-2-2-2-2-2-|----------------------|


                                                                         
----------------------|------------------------|------------------------|
-------0----4---------|------------------------|------------------------|
--3--------------5----|--7----7-----5----5-----|--4----4-----3----3-----|
----------------------|----------0----------0--|----------0----------0--|


                                                                              
------------------------|------|------|-------------------|------------------|
-------------1----1--2--|------|------|-------------------|------------------|
--2----2-----2----2--2--|------|------|--7----------------|------------------|
----------0----------0--|------|------|--0----------------|------------------|


                                                                        3x
|-----------------------------------|-----------------------------------||
|*----------------------------------|----------------------------------*||
|*------------------2-2-2-2-2-2-2-2-|--3-3-3-3-3-3-2-2-2-2-5-5---------*||
|---0-0-0-0-3-3-3-3-----------------|--------------------------3-3-2-2--||


                                                           
-----------------------------------|----------------------|
*----------------------------------|----------------------|
*----------------------------------|----------------------|
---0-0-0-0-0-0-0-0-0-0-0-0-0-0-0-0-|--3----3----3----3----|


                                                            
----------------------------------|-----------------------||
--0-0-0-0-0-0-0-0-0-0-0-0-0-0-0-0-|----------------------*||
----------------------------------|--0---------5----4----*||
----------------------------------|-------0---------------||


                                                        
--------------4--5------|------------------------------|
------------------------|------------------------------|
--0--0--0--0--2--3------|------------------------------|
------------------------|--0-0--0-0-0--0-0-0--0-0-0--0-|


                                                                      
------------------------------|-------------------------------|------|
------------------------------|-------------------------------|------|
------------------------------|-------------------------------|------|
--0-0--0-0-0--0-0-0--0-0-0--0-|--2-2--2-2-2--2-2-2--2-2-2-2-2-|------|


                                                              
------------------------------|------------------------------|
------------------------------|------------------------------|
------------------------------|------------------------------|
--0-0--0-0-0--0-0-0--0-0-0--0-|--0-0--0-0-0--0-0-0--0-0-0--0-|


                                                       
-------------------------------|----------------------|
-------------------------------|-------0----4---------|
-------------------------------|--3--------------5----|
--2-2--2-2-2--2-2-2--2-2-2-2-2-|----------------------|


                                                              
------------------------------|------------------------------|
------------------------------|------------------------------|
------------------------------|------------------------------|
--0-0--0-0-0--0-0-0--0-0-0--0-|--0-0--0-0-0--0-0-0--0-0-0--0-|


                                                                      
-------------------------------|------|------------------------------|
-------------------------------|------|------------------------------|
-------------------------------|------|------------------------------|
--2-2--2-2-2--2-2-2--2-2-2-2-2-|------|--0-0--0-0-0--0-0-0--0-0-0--0-|


                                                                  
------------------------------|----------------------------------|
------------------------------|----------------------------------|
------------------------------|----------------------------------|
--0-0--0-0-0--0-0-0--0-0-0--0-|--2-2-2-2-2-2-2-2-2-2-2-2-2-2-2-2-|


                                                                       
----------------------|----------------------|------------------------|
-------0----4---------|-------0----4---------|------------------------|
--3--------------5----|--3--------------5----|--7----7-----5----5-----|
----------------------|----------------------|----------0----------0--|


                                                          
------------------------|------------------------|------||
------------------------|-------------1----1--2--|------||
--4----4-----3----3-----|--2----2-----2----2--2--|------||
----------0----------0--|----------0----------0--|------||


In Flames albums
2004 Soundtrack to Your Escape
2002 Reroute to Remain
2000 Clayman
1999 Colony
1997 Black-Ash Inheritance
1997 Whoracle
1995 Jester Race
1994 Subterranean
1994 Lunar Strain
Jester Race tabs
01Moonshield tabbass tab
02The Jester's Dance tabbass tab
03Artifacts of the Black Rain tabbass tab
04Graveland tabbass tab
05Lord Hypnos tabbass tab
06Dead Eternity tabbass tab
07The Jester Race tabbass tab
08December Flower tabbass tab
09Wayfaerer tabbass tab
10Dead God in Me tabbass tab

 

1