Search tabs:
Browse artists: 0-9 | A | B | C | D | E | F | G | H | I | J | K | L | M | N | O | P | Q | R | S | T | U | V | W | X | Y | Z
/ Leftover Crack / Fuck World Trade (2004) / Burn Them Prisons bass tab

Song: BURN THEM PRISONS
Band: LEFTOVER CRACK

Album: F*** WORLD TRADE
Tabbed by: Scott bass player for Nihilistic Youth

Intro/Bridge:
G-----------------------------|
D--------------0h2-2------5-|
A----------------------3-3---|
E-----------------------------|

Verse:
G-------------------------------------------------------|
D-------------------------------------------------------|
A---------------------------------3333-3333--|
E-3333-3333-33333333-0000-0000---------------|

Sometimes they play
A---------------------------7777-7777-3333-3333-|
E-3333-3333-33333333----------------------------|

Chorus:
G-------------------------------------------------------------------|
D-------------------------------------------------------------------|
A-----------------3-333-3-333----------------2-222-2-222--0-|
E-0-000-0-000-----------------3-333-3-333-------------------3-2-|

Order:
Intro
Verse
Chorus
Verse
Chorus
Bridge (intro)
Verse

Thatís it, Enjoy and please rate this tab.


Leftover Crack albums
2004 Fuck World Trade
2001 Mediocre Generica
Fuck World Trade tabs
02Life Is Pain tabbass tab
03Burn Them Prisons tabbass tab
04Gang Control tabbass tab
05Super Tuesday tabbass tab
06Via Sin Dios tabbass tab
08One Dead Cop tabbass tab
10Rock the 40 Oz. tabbass tab
11Soon We'll Be Dead tabbass tab
13Operation: M.O.V.E. tabbass tab

 

1