Search tabs:
Browse artists: 0-9 | A | B | C | D | E | F | G | H | I | J | K | L | M | N | O | P | Q | R | S | T | U | V | W | X | Y | Z
/ Leftover Crack / Fuck World Trade (2004) / Rock the 40 Oz. bass tab

Leftover Crack "Jesus Has A Place For Me"
better known as "Rock The 40 oz"

Intro
G------------------
D------------------
A--777-333---------
E--------------333- different variations until singing starts

G---------------------------
D---------------------------
A--7-5-3-2------2-3-5-------
E--------------2-2----------

G---------------------------
D------------------5-4------
A--7-5-3-2-------------5----
E-------------2-2-----------

G---------------------------
D---------------------------
A--------2222-33333333------
E--3333---------------------

G-----------------------------------------------------
D-----------------------------------------------------
A--77777777-55555555-77777777-5555-3-2----------------
E-----------------------------------------------------


Leftover Crack albums
2004 Fuck World Trade
2001 Mediocre Generica
Fuck World Trade tabs
02Life Is Pain tabbass tab
03Burn Them Prisons tabbass tab
04Gang Control tabbass tab
05Super Tuesday tabbass tab
06Via Sin Dios tabbass tab
08One Dead Cop tabbass tab
10Rock the 40 Oz. tabbass tab
11Soon We'll Be Dead tabbass tab
13Operation: M.O.V.E. tabbass tab

 

1