Search tabs:
Browse artists: 0-9 | A | B | C | D | E | F | G | H | I | J | K | L | M | N | O | P | Q | R | S | T | U | V | W | X | Y | Z
/ Leftover Crack / Fuck World Trade (2004) / Soon We'll Be Dead bass tab

Verse 1
G----------------
D----------------
A-----5------3---
E-3------0-------

Play this 7 times and on the 8th time play

Verse 1 w/ fill
G--------------------
D--------------------
A-----5------3-2-----
E-3------0--------5--

Then alternate between those two 7 times if you can count right then
on the 7th time you will play the verse without the fill

Verse 2
G-------------------------
D-------------------------
A----------------3-2------
E-3-33-2-22-0-00-----5----

Play verse 2 once then

Verse 3
G--------------------------------
D-----------4-5------------2h3p2-
A-----2-3h5------------2-3-------
E-3-5--------------3-5-----------

Then it goes
Verse 1
Verse 1 w/ fill
Verse 1
Verse 3
Verse 1
Verse 1 w/ fill
Verse 3
Verse 3

Bridge
G-----------------------------
D-----------------------------
A-----------------------------
E-3-0000-3-0000-3-0000-5-5-5--

G-----------------------------
D-----------------------------
A-----------------------------
E-3-0000-3-0000-3-0000-1-1-1--

G------------------------------------
D------------------------------------
A------------------------------------
E-3-0000-3-0000-3-0000-5-5-5-7-8-10---

Then play
Verse 1 three times
Verse 1 w/fill
Verse 1 three times
Verse 1 w/ fill
Verse 1 three times
Verse 2
Verse 1
Verse 2
Verse 3 five times
Verse 2
Bridge
Verse 1 three times
Verse 2
Verse 3 eleven times
Verse 2
Bridge

End on G

Also sometimes the bassist plays
Verse 1 like this

G------------------    G--------------------
D------------------    D--------------------
A-----5-----3-33---    A------5-----3---3---
E-3------0--------- or E-3-------0----------

And sometimes Verse 2 is played like this

G-----------------------
D-----------------------
A-----------------3-33--
E-3-33-2-22-0-00--------

It\'s a real easy song to play and you can improvise
most of the song and come up with your own fills.
Be creative.


Leftover Crack albums
2004 Fuck World Trade
2001 Mediocre Generica
Fuck World Trade tabs
02Life Is Pain tabbass tab
03Burn Them Prisons tabbass tab
04Gang Control tabbass tab
05Super Tuesday tabbass tab
06Via Sin Dios tabbass tab
08One Dead Cop tabbass tab
10Rock the 40 Oz. tabbass tab
11Soon We'll Be Dead tabbass tab
13Operation: M.O.V.E. tabbass tab

 

1