Search tabs:
Browse artists: 0-9 | A | B | C | D | E | F | G | H | I | J | K | L | M | N | O | P | Q | R | S | T | U | V | W | X | Y | Z
/ Leftover Crack / Fuck World Trade (2004) / Via Sin Dios bass tab

Band: Leftover Crack
Song: Via Sin Dios
Album: F**k World Trade
Year: 2004
Tuning: Standard (E,A,D,G)
--------------------------------------------------------------------------------------------------------------
~ = Let Ring
--------------------------------------------------------------------------------------------------------------


Play After Guitar Intro
G-------------------------
D-------------------------
A-------------------------
E-33333-33333333333-------

G------------------------------------------------
D------------------------------------------------
A-----5----7-------2----3------------------------
E-3-------------------------33333333-333333333---

G-----------------------------------------------------------
D-----------------------------------------------------------
A--------55555-7777777777---22222-33333--------------------- x2
E-33333----------------------------------33333333-33333333--

Six Feet Down And Underground...
G---------------------------
D---------------------------
A-22222-33333--------------- x3
E---------------33333-33333-

On the 4th "Six feet down and underground" play this:
G--------------------------------------------------------
D--------------------------------------------------------
A-22222-33333-------------------------------------------- x1
E---------------3-3333333--5-5555555-7-7777777-8-8888888-

G-----------------------------------------------------------
D-----------------------------------------------------------
A--------55555-7777777777---22222-33333--------------------- x2
E-33333----------------------------------33333333-33333333--

Six Feet Down And Underground...
G---------------------------
D--------------------------- x3
A-22222-33333---------------
E---------------33333-33333-

On the 4th "Six feet down and underground" Play this:
G--------------------------------------------------------
D--------------------------------------------------------
A-22222-33333-------------------------------------------- x1
E---------------3-3333333--5-5555555-7-7777777-8-8888888-

G------------------------------------------
D------------------------------------------
A------------------------------------------ x3
E-333333333--555555555-777777777-88888888--

Play this during the solo
G-----------------------------------------------------------
D-----------------------------------------------------------
A--------55555-7777777777---22222-33333--------------------- x1
E-33333----------------------------------33333333-33333333--

Outro, right after the solo is done...
G-----------------------------------------------
D-----------------------------------------------
A-----5----7-------2----3-----------------------
E-3-------------------------33333333-333333333--

Thats it, not too hard... basically the hardest part is memorizing when to play which... but
just go with the guitar, and ya cant go wrong... Enjoy!


Leftover Crack albums
2004 Fuck World Trade
2001 Mediocre Generica
Fuck World Trade tabs
02Life Is Pain tabbass tab
03Burn Them Prisons tabbass tab
04Gang Control tabbass tab
05Super Tuesday tabbass tab
06Via Sin Dios tabbass tab
08One Dead Cop tabbass tab
10Rock the 40 Oz. tabbass tab
11Soon We'll Be Dead tabbass tab
13Operation: M.O.V.E. tabbass tab

 

1