Search tabs:
Browse artists: 0-9 | A | B | C | D | E | F | G | H | I | J | K | L | M | N | O | P | Q | R | S | T | U | V | W | X | Y | Z
/ Minor Threat / Minor Threat (EP) (1981) / Minor Threat bass tab

Minor Threat
By: Minor Threat
Tabbed by: R_J_K@hotmail.com

Verse: (guitar plays once before)
G --------------------------------
D -------------------------------- (7x)
A --5555--0000--7777--3-----------
E -----------------------------3--

Chorus:
G ----------------------------------------------------
D ----------------------------------------------------
A --2222---------2222--5050--2222-------------2~------  ~= Let ring
E ----------3333---------------------3333-------------

Then: (play fast)
G --------------------
D -------------------- (10x)
A --5--0--7--3--------
E ----------------3---

Verse:
G --------------------------------
D -------------------------------- (8x)
A --5555--0000--7777--3-----------
E -----------------------------3--

Chorus:
G ------------------------------------------------
D ------------------------------------------------
A --2222---------2222--5050--2222----------2~-----  ~= Let ring
E ----------3333--------------------3333----------

Then: (play fast)          After that:
G --------------------         ----------------
D --------------------(10x)    ----------------
A --5--0--7--3--------         --5-------------
E ----------------3---         ----------------


Minor Threat albums
2003 First Demo Tape
1985 Salad Days (Single)
1984 Out of Step
1981 In My Eyes (EP)
1981 Minor Threat (EP)
Minor Threat (EP) tabs
01Filler tabbass tab
02I Don't Wanna Hear It tabbass tab
03Seeing Red tabbass tab
04Straight Edge tabbass tab
05Small Man, Big Mouth tabbass tab
06Screaming at a Wall tabbass tab
07Bottled Violence tabbass tab
08Minor Threat tabbass tab

 

1