Search tabs:
Browse artists: 0-9 | A | B | C | D | E | F | G | H | I | J | K | L | M | N | O | P | Q | R | S | T | U | V | W | X | Y | Z
/ Minor Threat / Minor Threat (EP) (1981) / Screaming at a Wall bass tab

Screaming At a Wall
Minor Threat
Tabbed by: R_J_K@hotmail.com

Verse: (Guitar plays 2x first)
G -------------------------
D ------------------------- (4x)
A -5-2-333-----------------
E ------------333333-------

Chorus:
G -----------------------
D ----------------------- (4x)
A --2--3------4--5-------
E ---------3---------5---

Verse:
G -------------------------
D ------------------------- (6x)
A -5-2-333-----------------
E ------------333333-------

Chorus:
G -----------------------
D ----------------------- (4x)
A --2--3-------4--5------
E ---------3----------5--

Then: (Guitar plays once before)
G --------------------------------       ---------------------------------
D -------------------------------- (6x)  ---------------------------------
A ---------7777---555-------------       --------7777---55555555----------
E --7777----------------5555------       -7777----------------------------

Verse:
G -------------------------
D ------------------------- (6x)
A -5-2-333-----------------
E ------------(3)33333-----
                     |
           Stop on last time


Minor Threat albums
2003 First Demo Tape
1985 Salad Days (Single)
1984 Out of Step
1981 In My Eyes (EP)
1981 Minor Threat (EP)
Minor Threat (EP) tabs
01Filler tabbass tab
02I Don't Wanna Hear It tabbass tab
03Seeing Red tabbass tab
04Straight Edge tabbass tab
05Small Man, Big Mouth tabbass tab
06Screaming at a Wall tabbass tab
07Bottled Violence tabbass tab
08Minor Threat tabbass tab

 

1