Search tabs:
Browse artists: 0-9 | A | B | C | D | E | F | G | H | I | J | K | L | M | N | O | P | Q | R | S | T | U | V | W | X | Y | Z
/ Minor Threat / Minor Threat (EP) (1981) / Seeing Red bass tab

Seeing Red
Minor Threat
Tabbed by: R_J_K@hotmail.com

Verse: 6x
G ---------------------
D ---------------------
A --------------7--5---
E -555555--3-----------

Chorus: 6x
G ------------------------------
D ------------------------------
A  -3------------------5555-----
E -----3-5-00-1111--------------

Then: 4x
G ---------------------
D ---------------------
A-----------7----5-----
E --5----3-------------

Chorus: 6x
G ------------------------------
D ------------------------------
A  -3------------------5555-----
E -----3-5-00-1111--------------

Then: 2x
G ---------------------
D ---------------------
A-----------7----5-----
E --5----3-------------

Verse: 2x                   After that:
G ---------------------  |  ----------
D ---------------------  |  ----------
A --------------7--5---  |  ----------
E -555555--3-----------  |  -5~-------

Verse: 3x                   After that:
G ---------------------  |  -----------
D ---------------------  |  -----------
A --------------7--5---  |  -----------
E -555555--3-----------  |  --5--------


Minor Threat albums
2003 First Demo Tape
1985 Salad Days (Single)
1984 Out of Step
1981 In My Eyes (EP)
1981 Minor Threat (EP)
Minor Threat (EP) tabs
01Filler tabbass tab
02I Don't Wanna Hear It tabbass tab
03Seeing Red tabbass tab
04Straight Edge tabbass tab
05Small Man, Big Mouth tabbass tab
06Screaming at a Wall tabbass tab
07Bottled Violence tabbass tab
08Minor Threat tabbass tab

 

1