Search tabs:
Browse artists: 0-9 | A | B | C | D | E | F | G | H | I | J | K | L | M | N | O | P | Q | R | S | T | U | V | W | X | Y | Z
/ The Police / Outlandos d'Amour (1978) / So Lonely bass tab

So Lonely  (The Police)
----------------------

 The Verse:
       e    e h q e   e h q e   e h q e   e h q e
   +-----+----------+---------+---------+----------+
   |4:---|*---R-R---|---R-R---|---R-R---|---R-R---*|
   |4:---|*-3-------|---------|---------|---------*|
   +---3-+--------3-+-3-----5-+-5-----1-+-1-----3--+


 The Chorus:
	    e e e e e e e e   e e e e e e e e   e e e e e e e e   e Q e Q
         +------------------+-----------------+-----------------+----------+
         |*-----------------|-----------------|-----------------|-R---R---*|
         |*-3-3-3-3-3-3-3-3-|-----------------|-----------------|---------*|
         +------------------+-3-3-3-3-3-2-3-4-+-5-5-5-5-5-5-5-5-+---1---1--+

 The Verse after the key change:

       e    e h q e   e h q e   e h q e   e h q e
   +-----+----------+---------+---------+----------+
   |4:---|*---R-R---|---R-R---|---R-R---|---R-R---*|
   |4:---|*-5-------|-------2-|-2-------|---------*|
   +---5-+--------5-+-5-------+-------3-+-3-----5--+

 The bass line underneath Mr.Summers' fine solo:

   e e e e e e e e   e e e e e e e e   e e e e e e e e   e e e e e e e e
 +-----------------+-----------------+-----------------+-----------------+
 |-----------------|-7-7-7-7-7-6-7-8-|-9-9-9-9-9-9-9-7-|-5-5-5-5-5-------|
 |-5-5-5-5-5-5-5-5-|-----------------|-----------------|-----------7-5-7-|
 +-----------------+-----------------+-----------------+-----------------+

   e e e e e e e e   e e e e e e e e   e e e e e e e e   e e e e e e e e
 +-----------------+-----------------+-----------------+-----------------+
 |-----------------|-----------------|-----------------|-R-5-5-5-5-5-----|
 |-5-5-5-5-5-------|-----------------|-----------------|-------------7-7-|
 +-----------7-5-7-+-5-5-5-5-5-4-5-6-+-7-7-7-7-7-7-7-7-+-----------------+
	
           e e e e e e e e   e e e e e e e e   e e e e e e e e   e e e e e e e e
         +-----------------+-----------------+-----------------+-----------------+
         |-----------------|-7-7-7-7-7-6-7-8-|-9-9-9-9-9-9-9-7-|-5-5-5-5-5-5-5-5-|
         |-5-5-5-5-5-4-5-6-|-----------------|-----------------|-----------------|
         +-----------------+-----------------+-----------------+-----------------+

           e e e e e e e e   e e e e e e e e   e e e e e e e e   e e e e e e e e
         +-----------------+-----------------+-----------------+-----------------+
         |-----------------|-7-7-7-7-7-7-7-7-|-9-9-9-9-9-9-9-9-|-9-5-5-5-5-5-5-5-|
         |-5-5-5-5-5-5-5-5-|-----------------|-----------------|-----------------|
         +-----------------+-----------------+-----------------+-----------------+

           e e e e e e e e   e e e e e e e e   e e e e e e e e   e Q e Q
        +------------------+-----------------+-----------------+----------+
        |*-----------------|-----------------|-----------------|-R---R---*|
        |*-5-5-5-5-5-5-5-5-|-----------------|-2-2-2-2-2-2-2-2-|---------*|
        +------------------+-5-5-5-5-5-5-5-5-+-----------------+---3---3--+


The Police albums
1983 Synchronicity
1981 Ghost in the Machine
1980 Zenyatta Mondatta
1979 Reggatta de Blanc
1978 Outlandos d'Amour
Outlandos d'Amour tabs
01Next to You tabbass tab
02So Lonely tabbass tab
03Roxanne tabbass tab
06Can't Stand Losing You tabbass tab
07Truth Hits Everybody tabbass tab
09Be My Girl - Sally tabbass tab

 

1