Search tabs:
Browse artists: 0-9 | A | B | C | D | E | F | G | H | I | J | K | L | M | N | O | P | Q | R | S | T | U | V | W | X | Y | Z
/ Sevendust / Home (1999) / Denial bass tab

SONG: Denial
         BAND: Sevendust
        ALBUM: Sevendust
        TABBED BY: Jordan G. 
        Email: nuts4ps@aol.com
-----------------------------------------------------------------------

Normal 7Dust tuning is Gb-Db-Ab-Db.

Intro
Gb|-----------------------------------|
Db|-----------------------------------|
Ab|-4/8-4/6-4/8-4/5-5/8-4/7-4/6-4-4/5-|
Db|-----------------------------------|

After intro
Gb|--------------------------------|
Db|--------------------------------|
Ab|-----------------------------5^-|
Db|-2p0-0-0-2p0-0-0-2p0-0-0-2p0----|

verse
Gb|--------------------------------|
Db|--------------------------------|
Ab|-----------------------------5^-|
Db|-1p0-0-0-1p0-0-0-1p0-0-0-1p0----|

Chorus
Gb|------------------------------------------|-------------------|
Db|-5-5-5-5-7-7-7-7--------------------------|-------------------|
Ab|------------------------------------------|-------------------|
Db|------------------6-6-6-6-4-4-4-4/12-4/12-|-2-3-4-5-6-2/3-2/3-|

Break
Gb|-------------------|---------------------------------------------------|
Db|-------------------|---------------------------------------------------|
Ab|-----------------5^|-4-4-4-4/6-6-6-6\4-4-4-4\2-2-2-2\1-1-1-1/2-2-2-2-2-|
Db|-1p0-1p0-1p0-1p0---|---------------------------------------------------|


Sevendust albums
2003 Seasons
2001 Animosity
1999 Home
1997 Sevendust
Home tabs
01Home tabbass tab
02Denial tabbass tab
03Headtrip tabbass tab
05Reconnect tabbass tab
06Waffle tabbass tab
07Rumble Fish tabbass tab
08Licking Cream tabbass tab
09Grasp tabbass tab
10Crumbled tabbass tab
11Feel So tabbass tab
13Bender tabbass tab

 

1