Search tabs:
Browse artists: 0-9 | A | B | C | D | E | F | G | H | I | J | K | L | M | N | O | P | Q | R | S | T | U | V | W | X | Y | Z
/ Sugarcult / Start Static (2001) / Crashing Down bass tab

Band: Sugarcult
Album: Start Static
Song: Crashing Down
Label: Artemis
Bassist: Airin
Tabbed by: Chris

/=slide up
\\=slide down
^^=double digit

Intro
G|---------------------|
D|---------------------|
A|---------------------|
E|-7~-77~-77~-77\\5/7\\5-|

Verse
G|-------------------|
D|-------------------|
A|-5~---2~-----------|
E|-----------3~---5~-|

Mid-Verse
G|--------------------------|
D|--------------------------|
A|-8--8--8--8--8--8--8--8---|
E|--88-88-88-88-88-88-88-8~-|

Pre-Chorus
G|--------------------------------------------|
D|--------------------------------------------|
A|-5~---2~-----------8--8--8--8--8--8--8--8---|
E|-----------3-33/15--88-88-88-88-88-88-88-88-|
                  ^^

Chorus
G|---------------------------------------------------------------------------------------|
D|---------------------------------------------------------------------------------------|
A|-5555-2222----------------5555-2222-------------5555-2222----------------5555-2222-----|
E|-----------3333-3/10\\3/10-----------3333-3/10\\3-----------3333-3/10\\3/10-----------3-3-|
                    ^^   ^^                  ^^                    ^^   ^^

Intro
Verse
Mid-Verse
Chorus

Bridge (Listen very closely)
G|----------------------2-4-6-7---------2-4-6-7---------2-4-6-7---------2-0---0-|
D|--------5---7\\0-2-4-5---------0-2-4-5---------0-2-4-5---------0-2-4-5-----4---|
A|----5----5--------------------------------------------------------------------|
E|------------------------------------------------------------------------------|

G|---------------------------------------|
D|---------------------------------------|
A|-5454-2020-----------5454-2020---------|
E|-----------3232-5353-----------3-5-7-5-|

Final Chorus
Chorus
G|---------------------------------------------------------------------------------------------|
D|---------------------------------------------------------------------------------------------|
A|-55---2222----------------5555-2222-------------5555-2222----------------5555-2222-----------|
E|-----------3333-3/10\\3/10-----------3333-3/10\\3-----------3333-3/10\\3/10-----------6666-8888-|

Chorus

Thank you.  Please rate.  The timing and order might be ***ed a little, but you can figure it out.


Sugarcult albums
2004 Palm Trees and Power Lines
2001 Start Static
Start Static tabs
01You're the One tabbass tab
02Stuck in America tabbass tab
03Hate Every Beautiful Day tabbass tab
04Bouncing off the Walls tabbass tab
05Saying Goodbye tabbass tab
06Daddy's Little Defect tabbass tab
07Lost in You tabbass tab
08Pretty Girl (The Way I Love You) tabbass tab
09Crashing Down tabbass tab
10How Does It Feel tabbass tab
11I Changed My Name tabbass tab

 

1