Search tabs:
Browse artists: 0-9 | A | B | C | D | E | F | G | H | I | J | K | L | M | N | O | P | Q | R | S | T | U | V | W | X | Y | Z
/ Sugarcult / Start Static (2001) / How Does It Feel bass tab

Sugarcult
How does it feel?

Intro (x4)
G|-------------------|
D|-------------------|
A|--------666-66-66--|
E|--6-6-6------------|

Verse                 			       1st time only
G|-----------------------------------------|    |-------------|
D|-----------------------------------------|(x2)|-------------|
A|-----------88888888-----------666666666--|    |--888888888--|
E|--66666666----------888888888------------|    |-------------|

Chorus (x2)
G|---------------------------------------|
D|---------------------------------------|
A|-----------88888888----------88888888--|
E|--66666666----------88888888-----------|


Interchange (x2)
G|-------------------|
D|-------------------|
A|--------666-66-66--|
E|--6-6-6------------|

Verse
Chorus (x2)

Bridge
G|----------------------------------------------------------|
D|----------------------------------------------------------|
A|--6-6-6-6--8-8-8-8--66666666--6-6-6-6--8-8-8-8--66666666--|
E|----------------------------------------------------------|

G|-----------------------------------------|
D|-----------------------------------------|(x2)
A|-----------88888888-----------666666666--|
E|--66666666----------888888888------------|

G|----------------------------------------------------|
D|----------------------------------------------------|
A|--6-6-6-6--8-8-8-8--66666666--6-6-6-6--8-8-8-8--6~--|
E|----------------------------------------------------|

no bass (guitar palm mute part) two measures

Verse  (x2)
Chorus (x6)

Outro
G|-------------------|    |---------------------|
D|-------------------|(x3)|---------------------|
A|--------666-66-66--|    |--------666--66--66--|
E|--6-6-6------------|    |--6-6-6--------------|

That’s it…have fun  Tabbed by Dave Stinnette


Sugarcult albums
2004 Palm Trees and Power Lines
2001 Start Static
Start Static tabs
01You're the One tabbass tab
02Stuck in America tabbass tab
03Hate Every Beautiful Day tabbass tab
04Bouncing off the Walls tabbass tab
05Saying Goodbye tabbass tab
06Daddy's Little Defect tabbass tab
07Lost in You tabbass tab
08Pretty Girl (The Way I Love You) tabbass tab
09Crashing Down tabbass tab
10How Does It Feel tabbass tab
11I Changed My Name tabbass tab

 

1